Stop Censorship
 
 

 
 1-9 a b c d e f g h i j k l m n o p q r s t u v w x y z
   Steppenwolf - Born To Be Wild Tab    

Author/Artist: Steppenwolf
Title: Born To Be Wild
Transcribed by: Nike Rida
Email: tobin.esperance@surfeu.de

Tuning: EADGBE

Note:

. = play palm muted


Verse:

E E E6 E7 E E E6 E7
------------------------0---0---0---0------------------------------0--0--0--0-
------------------------0---0---2---3------------------------------0--0--2--3-
------------------------1---1---1---1------------------------------1--1--1--1-
------------------------2---2---2---2------------------------------2--2--2--2-
------------------------2---2---2---2------------------------------2--2--2--2-
-0--0--0--0--0--0--0----0---0---0---0-----0--0--0--0--0--0--0--0---0--0--0--0-
. . . . . . . . . . . . . . .
Get your motor running Head out on the highway (and so on)


Pre Chorus:

G G A A E E E E E G G A A E E E E E
-3--x--5--x----0--0--0--0--0-----------3---x---5--x---0--0---0---0---0-------
-3--x--5--x----0--0--0--0--0-----------3---x---5--x---0--0---0---0---0-------
-4--x--6--x----1--1--1--1--1-----------4---x---6--x---1--1---1---1---1-------
-5--5--7--7----2--2--2--2--2-----------5---5---7--7---2--2---2---2---2-------
-5--5--7--7----2--2--2--2--2-----------5---5---7--7---2--2---2---2---2-------
-3--3--5--5----0--0--0--0--0-----------3---3---5--5---0--0---0---0---0-------

Yeah, Darling gonna make it happen. Take the world in a love embrace (aso)


Chorus:

E E E E E E
------------------------------------------------------------|-
------------------------------------------------------------|-
------------------------------------------------------------|-
-2---2---2---2---2---2---2---5---5--5--5--5--5--5-----------|-
-2---2---2---2---2---2---2---5---5--5--5--5--5--5-----------|-
-0---0---0---0---0---0---0---3---3--3--3--3--3--3-----------|-
. . . . . . . . . . . . . .
Like a true nature`s child, we were born, born to be wild


G G A A A A G G G G E
---------------------------------------|-
---------------------------------------|-
---------------------------------------|-
-5--5--7--7--7--7--5--5----5---5---2---|-
-5--5--7--7--7--7--5--5----5---5---2---|-
-3--3--3--5--5--5--3--3----3---3---0---|-
. . . . . . . . . . .
We can fly so high, I never wanna die.


E E E G e e e d c# d
-0----0--0---3-------0---0-0------------|-
-0----0--0---3----------------3--2--3---|-
-1----1--1---4--------------------------|-
-2----2--2---5--------------------------|-
-2----2--2---5--------------------------|-
-0----0--0---3--------------------------|-
Born To Be Wild