Stop Censorship
 
 

 
 1-9 a b c d e f g h i j k l m n o p q r s t u v w x y z
   Steppenwolf - Magic Carpet Ride Tab    


PLEASE RATE OR COMMENT!!!

Finally a good Magic Carpet Ride tab!
Intro, 20 seconds of effects. There is no real timing in this song, except in the intro, and theres a reason for the different spacing, listen to the song.

Intro/verse
|---------------------|--------------------------------------------|
|-10-10-x--8---8---8--|-10-10-x--8-----8-8-------------------------|
|-11-11-x--9---7---7--|-11-11-x--9-----7-7-------------------------|
|-12-12-x-10---9---9--|-12-12-x-10-----9-9-------------------------|
|---------------------|--------------------------------------------|
|---------------------|--------------------------------------------|

Chorus
|------------------------------------------------------------------|
|------------------------------------------------------------------|
|------------------------------------------------------------------|
|--------------------------5---------7-----------------------------|
|---5-----------8----------3---------5-----------------------------|
|---3-----------6--------------------------------------------------|

Post Chorus - If you want a neat sound, play the D string open on each strum.
|------------------------------------------------------------------|
|------------------------------------------------------------------|
|---10h12--12-12--12-12-12p10-10-----------------------------------|
|------------------------------------------------------------------|
|------------------------------------------------------------------|
|------------------------------------------------------------------|

During solo part - Same strumming as Post Chorus
|------------------------------------------------------------------|
|------------------------------------------------------------------|
|--7h9---9-9--9-9-9p7-7--------------------------------------------|
|--9-----9-9--9-9-9---9--------------------------------------------|
|--7-----7-7--7-7-7---7--------------------------------------------|
|------------------------------------------------------------------|