Stop Censorship
 
 

 
 1-9 a b c d e f g h i j k l m n o p q r s t u v w x y z
   Stutterfly - Frail Tab    

Stutterfly - Frail
Standard Tuning
This is only the intro, more to come when i get better at playing



---------------------------------------
---9--8-----9--8---6h8p6---------------
-0--0-----0--0---0--------------------- x6
---------------------------------------
---------------------------------------
---------------------------------------

--9--------8---------------------------
--7---8---6----------------------------
---------------------------------------
---------------------------------------
---------------------------------------
---------------------------------------


thats all i got. its just the intro, but its my first tab, and i`ve only been playin for about 2 months if you have feedback or whatever, go ahead and post it. and if you like stutterfly, share the wealth with ALL your friends. they are easily one of the best bands i know. that goes for underground AND mainstream. thanks, guys. keep jammin.