Stop Censorship
 
 

 
 1-9 a b c d e f g h i j k l m n o p q r s t u v w x y z
   Stutterfly - Gun In Hand Tab    

Artist: Stutterfly
Title: Gun In Hand
Transcribed by: hybridtheorist
Tuning: Dropped D (DADGBe)

^ Harmonic
d Turn distortion on
f Turn distortion off
. Palm mute

Intro
-|---------------------|------------------|-
-|:--------------------|-----------------:|-
-|---------------------|------------------|-
-|-4444-6666-7777-6666-|-00-000-000-0-0-0-|-
-|:4444-4444-4444-4444-|-00-000-000-0-0-0:|-
-|-4444-4444-4444-4444-|-00-000-000-0-0-0-|-
f d

Riff 1
-|---------------------|------------------|-
-|:--------------------|-----------------:|-
-|---------------------|------------------|-
-|-4444-6666-7777-6666-|-00-000-000-0-0-0-|-
-|:4444-4444-4444-4444-|-00-000-000-0-0-0:|-
-|-4444-4444-4444-4444-|-00-000-000-0-0-0-|-
d

Riff 2
-|---------------------|---------------------|-
-|:--------------------|--------------------:|-
-|---------------------|---------------------|-
-|---------------------|---------------------|-
-|:4444------4444------|-2000------2000-----:|-
-|-4444------4444------|-2000------2000------|-
.... .... .... ....

Riff 3
-|---------------------|---------------------|-
-|:--------------------|--------------------:|-
-|--------^------------|-------^-------------|-
-|-------^9^-----------|-------5^^-----------|-
-|:4444--9-9-4444------|-2000---55-2000-----:|-
-|-4444------4444------|-2000------2000------|-
.... .... .... ....

Riff 4
-|------------------|---------|-
-|:----------------:|---------|-
-|-^-^-^-^-^-^-^-^--|-^---^---|-
-|-9^9^9^9^9^9^9^9^-|-9-^-9-^-|-
-|:-9-9-9-9-9-9-9-9:|---9---9-|-
-|------------------|---------|-

Riff 1
Riff 2
Riff 3
Riff 4
Riff 1
F#5

Riff 5
-|-------------------------|-------------------------|-
-|:------------------------|------------------------:|-
-|-------------------------|-------------------------|-
-|-----7-6---------7-6-----|-----7-6---------7-6-----|-
-|:--4-----7-4---4-----7-4-|---0-----7-4---0-----7-4:|-
-|-4-----------4-----------|-0-----------0-----------|-
f

Riff 6
-|-------------------------|-------------------------|-
-|:------------------------|------------------------:|-
-|-------------------------|-------------------------|-
-|-4-4-4-4-4-xx4-4-4-4-4-xx|-0-0-0-0-0-xx0-0-0-0-0-xx|-
-|:4-4-4-4-4-xx4-4-4-4-4-xx|-0-0-0-0-0-xx0-0-0-0-0-x:|-
-|-4-4-4-4-4-xx4-4-4-4-4-xx|-0-0-0-0-0-xx0-0-0-0-0-xx|-
d

F#5

Riff 7
-|---------------------|-
-|:-------------------:|-
-|---------------------|-
-|-4444-6666-7777-6666-|-
-|:4444-4444-4444-4444:|-
-|-4444-4444-4444-4444-|-
f

D5

Riff 1
Riff 1 (palm mute the D5 chord)
F#5