Stop Censorship
 
 

 
 1-9 a b c d e f g h i j k l m n o p q r s t u v w x y z
   Stutterfly - Gun In Hand (bip Version) Tab    

Artist: Stutterfly
Title: Gun in Hand
Album: Broken in Pieces
Transcribed by: Gizmo Greg
Email: stutterfly@tamu.edu
aTm Aggies Rock!

Tuning: DADGBe
<>harmonic
.palm mute

intro/chorus
D|-4444-6666-7777-6666--2-0--0-0-0--0-0-0-0-0-0---
A|-4444-4444-4444-4444--2-0--0-0-0--0-0-0-0-0-0--- x6
D|-4444-4444-4444-4444--2-0--0-0-0--0-0-0-0-0-0---

verse 1:
D|-0-4-4-4--0-4-4-4--2-0-0-0--2-0-0-0---0-4-4-4--0-4-4-4--2-0-0-0--2-0-0-0--0--2--
A|-0-4-4-4--0-4-4-4--2-0-0-0--2-0-0-0---0-4-4-4--0-4-4-4--2-0-0-0--2-0-0-0--0--2--
D|-0-4-4-4--0-4-4-4--2-0-0-0--2-0-0-0---0-4-4-4--0-4-4-4--2-0-0-0--2-0-0-0--0--2--
. . . . . . . . . . . . . . . . . . . . . . . . . . . . . . . .

verse 2:
D|-0-4-4-4-----<4>-----0-4-4-4----<4>-----2-0-0-0--<5>--------2-0-0-0--<5>--------
A|-0-4-4-4--<4>---<4>--0-4-4-4-<4>---<4>--2-0-0-0-----<5><5>--2-0-0-0-----<5><5>-- x2
D|-0-4-4-4-------------0-4-4-4------------2-0-0-0-------------2-0-0-0-------------
. . . . . . . . . . . . . . . .

verse 3: guitar 1
D|-0-4-4-4-4-4-4-4-4-0-4-4-4-4-4-4-4-4-2-0-0-0-0-0-0-0-2-0-0-0-0-0-0-0----------|
A|-0-4-4-4-4-4-4-4-4-0-4-4-4-4-4-4-4-4-2-0-0-0-0-0-0-0-2-0-0-0-0-0-0-0----------| x2
D|-0-4-4-4-4-4-4-4-4-0-4-4-4-4-4-4-4-4-2-0-0-0-0-0-0-0-2-0-0-0-0-0-0-0----------|

verse 3: guitar 2
D|--<4>------<4>-----<4>---<4>------<4>-----<4>----<5>-----<5>-----<5>---<5>------<5>---------|
A|-----<4><4>--<4><4>---<4>---<4><4>--<4><4>--<4>----<5><5>--<5><5>---<5>---<5><5>---<5><5>---| x2
D|--------------------------------------------------------------------------------------------|

guitar 1:
e|----12------12-------------------
B|-------12-------12---------------
G|---------------------------------

guitar 2:
D|---<4>------<4>------------------
A|-------<4>-------<4>-------------
D|---------------------------------


chorus (x4)
verse 1
verse 2
chorus (x4)
verse 1
verse 2


D|--0-4~--|
A|--0-4~--|
D|--0-4~--|

interlude: Feedback
D|----7--6--------------7--6-------------7-6------------7-6----------- x6 |--0~--|
A|------------7--4--------------7--4-----------7--4------------7--4--- |--0~--|
D|--4----------------4----------------0--------------0---------------- |--0~--|

D|--444477666-----444477666-----000077760-----000077760--| x4 |--0-4--|
A|--444444447-----444444447-----000000007-----000000007--| |--0-4--|
D|--444444444-----444444444-----000000000-----000000000--| |--0-4--|
......... ......... ......... .........

D|-4-4-4-4--6-6-6-6--7-7-7-7--6-6-6-6-| x4 |---0---|
A|-4-4-4-4--4-4-4-4--4-4-4-4--4-4-4-4-| |---0---|
D|-4-4-4-4--4-4-4-4--4-4-4-4--4-4-4-4-| |---0---|


chorus x4


outro:
D|-4444-6666-7777-6666--0--000--00-00-00-00-0----------------------------- x4 |--0-4~-|
A|-4444-4444-4444-4444--0--000--00-00-00-00-0----------------------------- |--0-4~-|
D|-4444-4444-4444-4444--0--000--00-00-00-00-0----------------------------- |--0-4~-|