Stop Censorship
 
 

 
 1-9 a b c d e f g h i j k l m n o p q r s t u v w x y z
   Stutterfly - Hollow Tab    

#-----------------------------------------------------------------------------#
#-- File created with Instab - http:/www.pconline.com/~smcarey/instab.html --#
#-----------------------------------------------------------------------------#

Author/Artist: stutterfly
Title: hollow
Album: broken in pieces
Transcribed by: jason johnson
Email: jgeckoking@hotmail.com

Tuning: Drop D


Intro: guitar 1 clean

---4-3---4-3--1h2p1----|-4-3--------------------------------------------------
-----------------------|-0-0--------------------------------------------------
-0-----0---------------|-0-0--------------------------------------------------
-----------------------|------------------------------------------------------
-----------------------|------------------------------------------------------
-----------------------|------------------------------------------------------

intro 2: distortion
------------------------------------------------------------------------------
------------------------------------------------------------------------------
------------------------------------------------------------------------------
-x-6-5-5-5-5-5--x-2-1-1-1-1-1-------------------------------------------------
-x-6-5-5-5-5-5--x-2-1-1-1-1-1-------------------------------------------------
-x-6-5-5-5-5-5--x-2-1-1-1-1-1-------------------------------------------------

verse intro guitar 1:
------------------------------------------------------------------------------
------------------------------------------------------------------------------
------------------------------------------------------------------------------
------------------------------------------------------------------------------
------------------------------------------------------------------------------
-6p5-5-5-5-6p5-5-5-5-5-6-8----------------------------------------------------

verse:
------------------------------------------------------------------------------
------------------------------------------------------------------------------
------------------------------------------------------------------------------
-6-5-5-5-5-5-6-8--6-5-5-5-5-5-6-8---------------------------------------------
-6-5-5-5-5-5-6-8--6-5-5-5-5-5-6-8---------------------------------------------
-6-5-5-5-5-5-6-8--6-5-5-5-5-5-6-8---------------------------------------------

breakdown:
------------------------------------------------------------------------------
------------------------------------------------------------------------------
--------------------------*3-*3-*3--------------------------------------------
--------------------------*3-*3-*3--6-6-6-6-5-5-5-5-3-3-3-3-1-1-1-1-----------
--------------------------*3-*3-*3--6-6-6-6-5-5-5-5-3-3-3-3-1-1-1-1-----------
-6-6-6-6-5-5-5-5-3-3-3-3------------6-6-6-6-5-5-5-5-3-3-3-3-1-1-1-1-----------