Stop Censorship
 
 

 
 1-9 a b c d e f g h i j k l m n o p q r s t u v w x y z
   Stutterfly - Hollow Tab    

Artist: Stutterfly
Song: Hollow
Track Number: 6
Album: Broken Into Pieces…
Tabber: Jared
Tuning: Drop-D

Easy Song to Play, just listen to the song while reading this, and it will all make sense. Enjoy! And you probably don’t believe me, but this really is my first tab. Ok…STUTTERFLY RULES! Rate it too plz.

Intro: (Play Clean, * = Distorted)
Guitar 1 for Clean, Guitar 1 & 2 on Distorted
e|--------------------------------------------------|
b|--------------------------------------------------|
g|--------------------------------------------------|
d|-7/55/8-XX-00-7/55/3-XX-00-7/55/8-XX-00-7/55/3-00-|
a|-0-00-0-XX-00-0-00-0-XX-00-0-00-0-XX-00-0-00-0-00-|
D|--------XX-00--------XX-00--------XX-00-----------|
** ** **

Main Riff: (Distorted)
Guitar 1 & 2
e|----------------------------------------------------------|
b|----------------------------------------------------------|
g|----------------------------------------------------------| Repeat
d|-7/5/8-XX-00-XX-7/5/3-XX-00-XX-7/5/8-XX-00-XX-7/5/3-XX-00-| 2x
a|-7/5/8-XX-00-XX-7/5/3-XX-00-XX-7/5/8-XX-00-XX-7/5/3-XX-00-|
D|-7/5/8-XX-00-XX-7/5/3-XX-00-XX-7/5/8-XX-00-XX-7/5/3-XX-00-|

Verse 1: (Clean)
Guitar 1
e|---6-3~~~--5-3~~~|
b|-3-------3-------|
g|-----------------| Repeat
d|-----------------| 6x
a|-----------------|
D|-----------------|

Guitar 2 (Clean)
Fade In
e|--------------------------------------------------|
b|--------------------------------------------------|
g|--------------------------------------------------| Repeat
d|-7/55/8-XX-00-7/55/3-XX-00-7/55/8-XX-00-7/55/3-00-| 2x
a|-0-00-0-XX-00-0-00-0-XX-00-0-00-0-XX-00-0-00-0-00-|
D|--------------------------------------------------|

Main Riff (1x)

Verse 2: (Distorted, Palm Muted, . = Play Open 2nd Time)
Guitar 1 & 2
e|------------------------------------------|
b|------------------------------------------|
g|------------------------------------------| Repeat
d|-7-0-5-0-8-000-0-00-7-0-5-0-3-000-0-00----| 6x
a|-7-0-5-0-8-000-0-00-7-0-5-0-3-000-0-00----|
D|-7-0-5-0-8-000-0-00-7-0-5-0-3-000-0-00----|
..

Chorus 1: (Distorted)
Guitar 1 & 2
e|-----------------------|
b|-----------------------|
g|-----------------------| Repeat
d|-10101010-121212-5~~~~-| 3x
a|-10101010-121212-5~~~~-|
D|-10101010-121212-5~~~~-|

Chorus 2: (Distorted)
Guitar 1 & 2
e|---------------------------|
b|---------------------------|
g|---------------------------| Repeat
d|-10101010--12121212--5~~~~-| 1x
a|-10101010--12121212--5~~~~-|
D|-10101010--12121212--5~~~~-|

Fill: (Distorted, Palm Muted)
Guitar 1 & 2
e|---------|
b|---------|
g|---------|
d|-00-0-00-|
a|-00-0-00-|
D|-00-0-00-|

Verse 2 (6x)
Main Riff(3x)
Chorus 1(3x)
Chorus 2(1x)

Outro 1: (Distorted)
Guitar 1
e|-------------|
b|-------------|
g|-------------| Repeat
d|-5-7-5-7-5-7-| 8x
a|-5-7-5-7-5-7-|
D|-5-7-5-7-5-7-|

Guitar 2 (After Guitar 1’s Part 4x)
e|-------------------------------------------|
b|-------------------------------------------|
g|-------------------------------------------| Repeat
d|--------------7/8-88--------------7/8-1010-| 4x
a|--*Guitar 1*--7/8-88--*Guitar 1*--7/8-1010-|
D|--------------7/8-88--------------7/8-1010-|

Guitar 1 & 2
e|-----------------------------------------| |---------|
b|-----------------------------------------| |---------|
g|-----------------------------------------| Repeat |---------| End
d|-5-7-5-7-5-7-7/8-88-5-7-5-7-5-7-7/8-1010-| 4x |-5~~~-00-|
a|-5-7-5-7-5-7-7/8-88-5-7-5-7-5-7-7/8-1010-| |-5~~~-00-|
D|-5-7-5-7-5-7-7/8-88-5-7-5-7-5-7-7/8-1010-| |-5~~~-00-|