Stop Censorship
 
 

 
 1-9 a b c d e f g h i j k l m n o p q r s t u v w x y z
   Stutterfly - Sick Pig Tab    

Band: stutterfly
Song: sick pig
Tabbed by: Landon L

verse
e--------------------------|
b--------------------------|
g--------------------------|
d--0-0-1-0-1-0-1-3---------|
a--0-0-1-0-1-0-1-3---------| play it lots....
d--0-0-1-0-1-0-1-3---------|
. . . . . . . .
chorus

e-------------------------------|
b-------------------------------|
g-------------------------------|
d--0-0-12-5-0-8-7-0-8-7---------|
a--0-0-12-5-0-8-7-0-8-7---------| 4 times
d--0-0-12-5-0-8-7-0-8-7---------|
. .
e--------------------------|
b--------------------------|
g--------------------------|
d--8-8-8-8-7-7-7-7---------| |--0--|
a--8-8-8-8-7-7-7-7---------|4 times |--0--| at end of 4th time
d--8-8-8-8-7-7-7-7---------| |--0--|

e--------------------------------------------|
b--------------------------------------------|
g-1st time only |----------------------------|
d--0-0--------- |-0-0-1-0-1-0-1-3-0-0--------|
a--0-0--------- |-0-0-1-0-1-0-1-3-0-0--------| play until singing starts
d--0-0--------- |-0-0-1-0-1-0-1-3-0-0--------|
. . . . . . . . . . . .

e-------------------------------|
b-------------------------------|
g-------------------------------|
d--0-0-12-5-0-8-7-0-8-7---------|
a--0-0-12-5-0-8-7-0-8-7---------| 4 times
d--0-0-12-5-0-8-7-0-8-7---------|
. .

e--------------------------|
b--------------------------|
g--------------------------|
d--8-8-8-8-7-7-7-7---------| |--0--|
a--8-8-8-8-7-7-7-7---------|4times |--0--| at end of 4th time
d--8-8-8-8-7-7-7-7---------| |--0--|


e---------------|
b---------------|
g---------------|
d--0-0----------| d--0-0--8-77----|
a--0-0----------| a--0-0--8-77----|
d--0-0--8-77----|mess around with this d--0-0--8-77----| piss around with this also
. .

e-------------------------------|
b-------------------------------|
g-------------------------------|
d--0-0-12-5-0-8-7-0-8-7---------|
a--0-0-12-5-0-8-7-0-8-7---------| 6 times
d--0-0-12-5-0-8-7-0-8-7---------|
. .


e-------------------|
b-------------------|
g-------------------|
d--8-8-7-7-8-8------|
a--8-8-7-7-8-8------| 2times
d--8-8-7-7-8-8------|

e--------------------------|
b--------------------------|
g--------------------------|
d--8-8-8-8-7-7-7-7---------| |--0--|
a--8-8-8-8-7-7-7-7---------|4times |--0--| at end of 4th time
d--8-8-8-8-7-7-7-7---------| |--0--|

e-------------------|
b-------------------|
g-------------------|
d--0-1-0-1-0-1------|
a--0-1-0-1-0-1------|
d--0-1-0-1-0-1------|

ok this is all in order you play it so you dont have to think to play this song
feel free to correct me, email me at stutterfly@hotmail.com