Stop Censorship
 
 

 
 1-9 a b c d e f g h i j k l m n o p q r s t u v w x y z
   Stutterfly - Silent Scream Tab    

Artist: Stutterfly
Song: Silent Scream
Album: Broken in Pieces
Tabbed By: David B (first time tabber...)
Tuning: Dropped D

This is a simple song...
Also if you know how to make this tab even better... give me an emal (davidbickert@hotmail.com) and i`ll look into changing it.

pm=palm mute
p=pull off

e------------------------------------------------------------------|
B------------------------------------------------------------------|
G----------------------------------7-7-7-6-6-6-7-7-7-9-9-9-7-7-7-6-| MAIN RIFF
D-11-11--11-11-0--11-11--11-11-0---5-5-5-5-5-5-5-5-5-5-5-5-5-5-5-5-|
A-9--9---9--9--0--9--9---9--9--0---5-5-5-5-5-5-5-5-5-5-5-5-5-5-5-5-| X6
D-9--9---9--9-p0--9--9---9--9-p0---5-5-5-5-5-5-5-5-5-5-5-5-5-5-5-5-|


e-----------------------------------------------------------|
B-----------------------------------------------------------|
G---------------------------7-7-7-6-6-6-7-7-7-9-9-9-7-7-7-6-| VERSE
D-pm9-9-9-9--0--9-9-9-9--0--5-5-5-5-5-5-5-5-5-5-5-5-5-5-5-5-|
A-pm9-9-9-9--0--9-9-9-9--0--5-5-5-5-5-5-5-5-5-5-5-5-5-5-5-5-| X4
D-pm9-9-9-9-p0- 9-9-9-9-p0--5-5-5-5-5-5-5-5-5-5-5-5-5-5-5-5-|

(half palm mute all the 9999 0 part)

e--------------------------|
B--------------------------|
G--------------------------| CHORUS
D-0-0-0-0--5-4-4--9--9-9-9-|
A-0-0-0-0--5-4-4--9--9-9-9-| X4
D-0-0-0-0--5-4-4--9--9-9-9-|


(for the interlude the bass plays for the first 2 bars, then th guitar comes in with:)

e----------------------------------------------|
B----------------------------------------------|
G----------------------------------------------| INTERLUDE
D-pm-99999-777--99999-777--77777-555--77777-555|
A----------------------------------------------| X1
D----------------------------------------------|

e----------------------------------------------|
B----------------------------------------------|
G----------------------------------------------| INTERLUDE
D-pm-99999-777--99999-777--77777-555--77777-555|
A--------------------------(end palm mute here)| X1
D----------------------------------------------|

back to the main riff

e------------------------------------------------------------------|
B------------------------------------------------------------------|
G----------------------------------7-7-7-6-6-6-7-7-7-9-9-9-7-7-7-6-| MAIN RIFF
D-11-11--11-11-0--11-11--11-11-0---5-5-5-5-5-5-5-5-5-5-5-5-5-5-5-5-|
A-9--9---9--9--0--9--9---9--9--0---5-5-5-5-5-5-5-5-5-5-5-5-5-5-5-5-| X4
D-9--9---9--9-p0--9--9---9--9-p0---5-5-5-5-5-5-5-5-5-5-5-5-5-5-5-5-|


e-----------------------------------------------------------|
B-----------------------------------------------------------|
G---------------------------7-7-7-6-6-6-7-7-7-9-9-9-7-7-7-6-| VERSE
D-pm9-9-9-9--0--9-9-9-9--0--5-5-5-5-5-5-5-5-5-5-5-5-5-5-5-5-|
A-pm9-9-9-9--0--9-9-9-9--0--5-5-5-5-5-5-5-5-5-5-5-5-5-5-5-5-| X4
D-pm9-9-9-9-p0- 9-9-9-9-p0--5-5-5-5-5-5-5-5-5-5-5-5-5-5-5-5-|


e--------------------------|
B--------------------------|
G--------------------------| CHORUS
D-0-0-0-0--5-4-4--9--9-9-9-|
A-0-0-0-0--5-4-4--9--9-9-9-| X4
D-0-0-0-0--5-4-4--9--9-9-9-|

e--------------------------|
B--------------------------|
G--------------------------| CHORUS 2
D-0-0-x-x--5-4-4--9--9-9-9-|
A-0-0-x-x--5-4-4--9--9-9-9-| X2
D-0-0-x-x--5-4-4--9--9-9-9-|

e--------------------------|
B--------------------------|
G--------------------------| CHORUS
D-0-0-0-0--5-4-4--9--9-9-9-|
A-0-0-0-0--5-4-4--9--9-9-9-| X2
D-0-0-0-0--5-4-4--9--9-9-9-|