Stop Censorship
 
 

 
 1-9 a b c d e f g h i j k l m n o p q r s t u v w x y z
   Stutterfly - Silent Scream Tab    

Artist: Stutterfly
Song: Silent Scream
Year: 2002

Tuning: Dropped D (D,A,D,G,B,e)


** Very easy song to play, play with two guitars at once and it sounds 100%

e------------------------------------------------------|
B------------------------------------------------------|
G-6-6-66----6-6-66-------------7-7-7-6-6-6-6-6-6-6-6-6-| MAIN RIFF
D-6-6-66-0--6-6-66-0---5-5-5-5-5-5-5-5-5-5-5-5-5-5-5-5-|
A-4-4-44-0--4-4-44-0---5-5-5-5-5-5-5-5-5-5-5-5-5-5-5-5-|
D--------0---------0---5-5-5-5-5-5-5-5-5-5-5-5-5-5-5-5-|


e----------------------------------------------------|
B----------------------------------------------------|
G----------------------------7-7-7-6-6-6-6-6-6-6-6-6-| VERSE RIFF
D-9-9-9-9---9-9-9-9--5-5-5-5-5-5-5-5-5-5-5-5-5-5-5-5-|
A-9-9-9-9---9-9-9-9--5-5-5-5-5-5-5-5-5-5-5-5-5-5-5-5-|
D-9-9-9-9---9-9-9-9--5-5-5-5-5-5-5-5-5-5-5-5-5-5-5-5-|
. . . . . . . .

e-------------------------|
B-------------------------|
G-------------------------| CHORUS RIFF
D-0-0-0-0--5-4-0--9-9-9-9-|
A-0-0-0-0--5-4-0--9-9-9-9-|
D-0-0-0-0--5-4-0--9-9-9-9-|


e---------------------------------|
B---------------------------------|
G---------------------------------| BRIDGE RIFF
D-0-0-xx-0-0-xx-0--5-4-0--9-9-9-9-|
A-0-0-xx-0-0-xx-0--5-4-0--9-9-9-9-|
D-0-0-xx-0-0-xx-0--5-4-0--9-9-9-9-|