Stop Censorship
 
 

 
 1-9 a b c d e f g h i j k l m n o p q r s t u v w x y z
   Stutterfly - Silent Scream Tab    


Artist: Stutterfly
Song: Silent Scream
Album: Broken in Pieces
Tabbed By: CloveHitched (First Time)
Tuning: Dropped D


e----------------------------------------------------|
B----------------------------------------------------|
G--------------------------------5-5-5-7-7-7-6-6-6---| MAIN RIFF
D-11-11--11-11-0--11-11--11-11-0-5-5-5-7-7-7-7-7-7---|
A-9--9---9--9--0--9--9---9--9--0-5-5-5-5-5-5-5-5-5---| X10
D-9--9---9--9-p0--9--9---9--9-p0-5-5-5-5-5-5-5-5-5---|

e-----------------------------|
B-----------------------------|
G-----------------------------| CHORUS
D-0-0-0-0-0--5-4-0--9--9-9-9-9|
A-0-0-0-0-0--5-4-0--9--9-9-9-9| X4
D-0-0-0-0-0--5-4-0--9--9-9-9-9|

e----------------------------------------------|
B----------------------------------------------|
G----------------------------------------------| INTERLUDE
D-pm-99999-777--99999-777--77777-555--77777-555|
A----------------------------------------------| X1
D----------------------------------------------|

e-------------|
B-------------|
G-------------| CHORUS
D-0-0-0-0-0-5-|
A-0-0-0-0-0-5-| X2
D-0-0-0-0-0-5-|