Stop Censorship
 
 

 
 1-9 a b c d e f g h i j k l m n o p q r s t u v w x y z
   Subb - Average Guy Tab    

Subb - Average Guy
tabbed by : Gabe Xerri


* let ring out
^ bend up
intro 1
e|---------------------------------------------------------------------------
B|---------------------------------------------------------------------------
G|---9--9-7-----------9--9-7-------------------------------------------------
D|-7--------9-7-9---7---------9-7-9------------------------------------------
A|---------------------------------------------------------------------------
E|---------------------------------------------------------------------------

intro 2
e|---------------------------------------------------------------------------
B|---------------------------------------------------------------------------
G|---------------------------------------------------------------------------
D|---9999999999--7-9--11-11-11-11-11---12-11-12-11-12----x2------------------
A|-7-------------------------------------------------------------------------
E|---------------------------------------------------------------------------
verse - riff 1
e|---------------------------------------------------------------------------
B|---------------------------------------------------------------------------
G|-9*--7-9-11*--9-11-12*--11-12-14-12-11-12-11*--9*-7-9-11*-9-11-12----------
D|---------------------------------------------------------------------------
A|---------------------------------------------------------------------------
E|---------------------------------------------------------------------------

riff 2

e|------------------------------------------^^ ^^ ^^-------------------------
B|------------------------------------------12-12-12-------------------------
G|-9*-9-11-12-14-12*-14-12-11--14-12-11-999-----------14-12-11-12-11-12-11---
D|---------------------------------------------------------------------------
A|---------------------------------------------------------------------------
E|---------------------------------------------------------------------------

e|---------------------------------------------------------------------------
B|---------------------------------------------------------------------------
G|-11-12-14-12-11------------------------------------------------------------
D|---------------------------------------------------------------------------
A|---------------------------------------------------------------------------
E|---------------------------------------------------------------------------

repeat verse
repeat intro 2

bridge
palm mute
e|---------------------------------------------------------------------------|
B|---------------------------------------------------------------------------|
G|---------------------------------------------------------------------------|
D|---------------55555--77777--99999--9-7-5-7-5-7-5--------------------------|
A|-77777--99999---------------------------------------9--7-------------------|
E|---------------------------------------------------------------------------|

e|---------------------------------------------------------------------------|
B|---------------------------------------------------------------------------
G|---------------------------------------------------------------------------
D|---------------55555---77-------------^------------------------------------
A|-77777--99999---------------99999-----9------------------------------------
E|---------------------------------------------------------------------------