Stop Censorship
 
 

 
 1-9 a b c d e f g h i j k l m n o p q r s t u v w x y z
   Subb - PLASTIC GUNS AND BULLETS Tab    

subb - PLASTIC GUNS AND BULLETS

by Gabe Xerri

intro and verse

e|---------------------------------------------------------------------------|
B|---------------------------------------------------------------------------|
G|------7-------5------------------------------------------------------------|
D|--7---7---3---5------------------------------------------------------------|
A|--7---5---3---3------------------------------------------------------------|
E|--5-------1----------------------------------------------------------------|

pre chorus
e|---------------------------------------------------------------------------|
B|---------------------------------------------------------------------------|
G|--6--6--7--7--4--4--6--6-----------66666---77777---44444---66666-----------|
D|--7--7--7--7--5--5--7--7--x2-------77777---77777---55555---77777--x?-------|
A|--7--7--5--5--5--5--7--7-----------77777---55555---55555---77777-----------|
E|--5--5--------3--3--5--5-----------55555-----------33333---55555-----------|

pre chorus riff
e|---------------------------------------------------------------------------|
B|---------------------------------------------------------------------------|
G|--------------------------------------------------------^--------9------9--|
D|----------5---------5-7/9---9999-10-7--10p12--9p10p9---9-----7-7----7-7----|
A|-7-7-7-7-----7-7-7---------------------------------------------------------|
E|---------------------------------------------------------------------------|

repeat verse
repeat pre chorus
repeat chorus
repeat intro

e|---------------------------------------------------------------------------|
B|---------------------------------------------------------------------------|
G|-999999999999---12-12-12---99999999999---12-12-12--------------------------|
D|---------------------------------------------------------------------------|
A|-777777777777---10-10-10---77777777777---10-10-10--------------------------|
E|---------------------------------------------------------------------------|

repeat pre chorus
repeat chorus without riff
repeat intro