Stop Censorship
 
 

 
 1-9 a b c d e f g h i j k l m n o p q r s t u v w x y z
   Subject To Authority - It/s Over Tab    

Intro
------3-----3-----3-----3-----3-----3
-----3-----3-----3-----3-----3-----3
----0-----0-----0-----0-----0-----0
---0-----2-----2-----0-----0-----2
--2-----3-----0-----3-----2-----3
-3-----0-----3-----2-----3-----0

Chorus
-3--3--3-3-3-3333--3--3--3-3-3-3333
-3--3--3-3-3-3333--3--3--3-3-3-3333
-0--0--0-0-0-0000--0--0--0-0-0-0000 (alternate struming up and down.....it goes
-0--0--0-0-0-0000--2--2--2-2-2-2222 v v ^v^ v^v^)
-2--2--2-2-2-2222--3--3--3-3-3-3333
-3--3--3-3-3-3330--0--0--0-0-0-0000


-3--3--3-3-3-3333--3--3--3-3-3-3333
-3--3--3-3-3-3333--3--3--3-3-3-3333
-0--0--0-0-0-0000--0--0--0-0-0-0000
-2--2--2-2-2-2222--0--0--0-0-0-0000
-0--0--0-0-0-0000--3--3--3-3-3-3333
-3--3--3-3-3-3333--2--2--2-2-2-2222

----------------
----------------
----------------
---0---2---2---0 (2x) Metal Pedal
--2---3---0---3
-3---0---3---2

------------------------------------
------------------------------------
------------------------------------
-0--0--0-0-0-0000--2--2--2-2-2-2222 Metal Pedal
-2--2--2-2-2-2222--3--3--3-3-3-3333
-3--3--3-3-3-3333--0--0--0-0-0-0000

------------------------------------
------------------------------------
------------------------------------
-2--2--2-2-2-2222--0--0--0-0-0-0000
-0--0--0-0-0-0000--3--3--3-3-3-3333 Metal Pedal
-3--3--3-3-3-3333--2--2--2-2-2-2222

--------------------
--------------------
--------5-4-3-2
-2-4-55-5-4-3-2
-2-4-55-3-2-1-0
-0-2-33----------

--------------------2h3-4-5
--------------2-2h3-------
--------5-4-3-2************
-2-4-55-5-4-3-0************
-2-4-55-3-2-1--------------
-0-2-33--------------------
*means hold note

-|-5-5-4-2-0h2p0h2p0h2p0h2p0h2p0h2p0h2p0---7--7--7-9-9h10-9-7------|
-|---------------------------------------------7-------------------|
-|-----------------------------------------------------------------|
-|-----------------------------------------------------------------|
-|-----------------------------------------------------------------|
-|-----------------------------------------------------------------|


-|---5h7h5h7h5h7h5h7h5h7h5h7h5h7h5h7h5--0-h40h4h0h4h0h4h0h4h0h4h0h4|
-|-5---------------------------------------------------------------|
-|-----------------------------------------------------------------|
-|-----------------------------------------------------------------|
-|-----------------------------------------------------------------|
-|-----------------------------------------------------------------|


-h0h4h0h4h0h4v-----|-----------------------------------------|
-------------------|-0-h40h4h0h4h0h4h0h4h0h4h0h4h0h4h0h4h0h4v|
-------------------|-----------------------------------------|
-------------------|-----------------------------------------|
-------------------|-----------------------------------------|
-------------------|-----------------------------------------|

|----------------------------------|
|-5h7h5h7h5h7h5h7h5h7h5h7h5h7h5h7h5|
|----------------------------------|
|----------------------------------|
|----------------------------------|
|----------------------------------|

|-12p9----12p9-----12p9---|
|-----10-------10------10-|
|-------------------------|
|-------------------------|
|-------------------------|
|-------------------------|

|12p9----12p9----12p9-----12p9-17p12p9-17p12p9-17p12p9-17p12p9------|
|-----10------10------10--------------------------------------------|
|-------------------------------------------------------------------|
|-------------------------------------------------------------------|
|-------------------------------------------------------------------|
|-------------------------------------------------------------------|


-|-17p12p9-17p12p9-19p12p9-19p12p9-19p12p9-19p12p9-19p12p9-19p12p9---|
-|-------------------------------------------------------------------|
-|-------------------------------------------------------------------|
-|-------------------------------------------------------------------|
-|-------------------------------------------------------------------|
-|-------------------------------------------------------------------|
Repeat Riff one for Outro