Stop Censorship
 
 

 
 1-9 a b c d e f g h i j k l m n o p q r s t u v w x y z
   Sublime - 40 Oz. To Freedom Tab    

Standard tuning


Reggae stlye intro

the main thing is the sequence which is a G chord, a C chord and D chord,
listen to the song for the change.
Reggae style chords work well, being:
G C D
E-------7-------8-------10-----------------------------------------------
B-------8-------8-------10-----------------------------------------------
G-------7-------9-------11-----------------------------------------------
D------------------------------------------------------------------------
A------------------------------------------------------------------------
E------------------------------------------------------------------------
You can pick up or down, down being the reggae style, and up being the ska
way but both have a nice feel. Just remember to get into the feel and palm
mute after every time you strum.


During the verse only the bass and the drums are playing.


The Chorus

the chorus is just a sequence of three powerchords repeated 4 times, with
some distortion.
G5 Bb5 F5 x4
E------------------------------------------------------------------------
B------------------------------------------------------------------------
G---------------3--------------------------------------------------------
D-------5-------3-------3------------------------------------------------
A-------5-------1-------3------------------------------------------------
E-------3---------------1------------------------------------------------
the last part they hang on an F5 then a C5 and a G5, the C5 being:
F5 C5 G5
E------------------------------------------------------------------------
B------------------------------------------------------------------------
G---------------5--------------------------------------------------------
D-------3-------5-------5------------------------------------------------
A-------3-------3-------5------------------------------------------------
E-------1---------------3------------------------------------------------