Stop Censorship
 
 

 
 1-9 a b c d e f g h i j k l m n o p q r s t u v w x y z
   Sublime - Caress Me Down Tab    

Play 3X
|---------|----------|---------|------|
|---------|----------|---------|------|
|---------|----------|---------|------|
|---------|----------|---------|------|
|---------|----------|---------|------|
|--4-5-5--|-4--5--5--|--4-5-5--|-5-4--|

play 2X
|---------------------------------------|
|---------------------------------------|
|---------7-----------9-----------------|
|--7-7-7--7--7--7-7-7-9---7-------------|
|--7-7-7--5--7--7-7-7-7---7-------------|
|--5-5-5-----5--5-5-5-----5-------------|

play throughout the song up beats
|----X-X--X--X---X--X--X--X------------------------------|
|----X-X--7--7---X--X--9--9------------------------------|
|----6-6--7--7---6--6--9--9------------------------------|
|----7-7--7--7---7--7--9--9------------------------------|
|----7-7--5--5---7--7--7--7------------------------------|
|----5-5--X--X---5--5--X--X------------------------------|

thanks,
finalfantasyJAG