Stop Censorship
 
 

 
 1-9 a b c d e f g h i j k l m n o p q r s t u v w x y z
   Sublime - Crazy Fool Tab    

Sublime`s Crazy Fool
Original version is on PURE ANUS
Acoustic version is on Sublime Acoustic CD as Foolish Fool

Transcribed by Jeff Wolf

I figured this song out by listening to the acoustic version, which is below.
The original version is much better.


Intro/Chorus :

A C#m
e-------------5----------5---------------------------------------4-------
b-------------5----------5--------------------------------------5--------
g--------6----------6------------------------------------------6---------
d--------7----------7-----------------------------------------6----------
a--------7----------7---------------------------3---4-------4------------
e---5---------------------------5---5-----0------------------------------

Crazy Crazy Crazy Fool



C#m Cm Bm
-------4----3----2------2---2---2---2---2--
-------5----4----3------3---3---3---3---3--
-------6----5----4------4---4---4---4---4--
-------6----5----4------4---4---4---4---4--
-------4----3----2------2---2---2---2---2--
-------------------------------------------

Cra -



A
-----2---2---2---2---2---------5---5---5---5---5---5---5--------
-----3---3---3---3---3---------5---5---5---5---5---5---5--------
-----4---4---4---4---4---------6---6---6---6---6---6---6--------
-----4---4---4---4---4---------7---7---7---7---7---7---7--------
-----2---2---2---2---2---------7---7---7---7---7---7---7--------
-------------------------------5---5---5---5---5---5---5--------

- zy Fool





Verse is easy , its just :

E D
_ _
7 5
7 5
9 7
9 7
7 5
7 5


A E D
If he thinks he`s gonna take you from me, hes gotta be a crazy crazy crazy


C#m C#m Cm Bm A
crazy fool Cra - zy Fool


The bridge Part after chorus is just:

A G# F# (played once)
e--------5-5-5---4-4-4---2-2-2
b--------5-5-5---4-4-4---2-2-2
g--------6-6-6---5-5-5---3-3-3
d--------7-7-7---6-6-6---4-4-4
a--------7-7-7---6-6-6---4-4-4-
e--------5-5-5---4-4-4---2-2-2-


repeat F# with riff at end :


RIFF1 ------------------------------2
------------------------------2
------------------------------
------------------------------
-----0---2---0----------------
--2---------------2^0---2-----



F# (riff1)
My love for you is oh so strong

F# (riff1)
WE`ve been together for oh so long

F# (riff1)
Now im down in this misery


F# F E
--9----8----7--
--9----8----7--
--11---10---9--
--11---10---9--
--9----8----7--
--9----8----7--



F# F E
Is this this the way loves s`posed to be?




Then back to Verse.

Any comments, email Jeff@lynxus.com.
Ive also tabbed Big Salty Tears and Aint No Prophet.