Stop Censorship
 
 

 
 1-9 a b c d e f g h i j k l m n o p q r s t u v w x y z
   Sublime - Date Rape Tab    

e----------------------------------------------------------------------
b----------------------------------------------------------------------
g--(2x)-----999/101010/9-----------12x12-121212/11111111/10101010------
d-777/888/7-999/101010/9-777/888/7-12x12-121212/11111111/10101010------
a-777/888/7-777/ 8 8 8/7-777/888/7-10x10-101010/ 9 9 9 9/ 8 8 8 8------
e-555/666/5--------------555/666/5-------------------------------------

e----------------------------------------------------------------------
b--(2x)----------------------------------------------------------------
g-99999999-------------------------------------------------------------
d-99999999---77777777/99999999/10101010/9999---------------------------
a-77777777---77777777/99999999/10101010/9999---------------------------
e------------55555555/77777777/ 8 8 8 8/7777---------------------------

this is basically the whole song...time for the solo

e----------------------------------------------------------------------
b----8-10-8-10-8-8-h10/12-10-8-8-10-8----------------------------8-10-8
g-7h9--------------------------------7-7-9-7-9-7-------------7-h9------
d-----------------------------------------------7-7-9-7-9-7------------
a----------------------------------------------------------b7----------
e----------------------------------------------------------------------

e-----------------------------------------------------------------------
b-7----8-h10/12-10-12-10-12-10-12-10-12-10-10h1212-10h1212-10h1212-10h12
g--7-h9-----------------------------------------------------------------
d-----------------------------------------------------------------------
a-----------------------------------------------------------------------
e-----------------------------------------------------------------------

e-----------------------------------------------------------------------
b-12-10h1212------------------------------------------------------------
g-----------777-888-7-0-777-888-7-0-------------------------------------
d-----------------------------------------------------------------------
a-----------------------------------------------------------------------
e-----------------------------------------------------------------------