Stop Censorship
 
 

 
 1-9 a b c d e f g h i j k l m n o p q r s t u v w x y z
   Sublime - Jailhouse Tab    

Sublime-Jailhouse

main part
(play with p.m. and deaden strings many times)
E E p.m. D D p.m.
|---0---0------x--------------2---2-----x-------------------------------------------|
|---0---0------x--------------3---3-----x-------------------------------------------|
|---1---1------x--------------2---2-----x-------------------------------------------|
|---2---2------x--------------0---0-----x-------------------------------------------|
|---2---2------x--------------0---0-----x-------------------------------------------|
|---x---x------x--------------x---x-----x-------------------------------------------|
GO!! play this over again throughout most of the song

guitar solo (Key of Amajor, 2nd position)
p.m._______________________________________________________________________________|
|-----------------------------------------------------------------------------------|
|-----------------------------------------------------------------------------------|
|-----------------------------------------------------------------------------------|
|--7--9--7--9^(10)-9--7-----7-------------------------------------------------------|
|------------------------9-----9---7--7----9-9-9-7------9^(10)-9--7--9--7-----------|
|--------------------------------------------------------------------------9--7--9--|

|-----------------------------------------------------------------------------------|
|-----------------------------------------------------------------------------------|
|-----------------------------------------------------------------------------------|
|--------------------------9--7----9^(10)(9)----------------------------------------|
|--7h9--7-----7h9--7----9-----------------------------------------------------------|
|-----------------------------------------------------------------------------------|

okay, im out of time, thats most of the solo, the rest of the solo uses pretty the same notes, on the 7th and 9th frets. if your smart and not too lazy, you`ll get off the computer and go figure the rest out yourself.