Stop Censorship
 
 

 
 1-9 a b c d e f g h i j k l m n o p q r s t u v w x y z
   Sublime - Romeo Solo Tab    

Title: Romeo (the solo)
Band: Sublime
Tuning: Standard
Tabbed by Jan (Jan_Preinfalk@web.de)
b = bend
r = release
/ = slide up
= slide down


Chords over the solo are Cm-Ab-Bb-G
---------------------------------------------
---------------------------------------------
----------------------------8----------------
------------------8-10----10-10--10~~--------
-------8h10-/10~------------------------------
-8-11----------------------------------------



----8----------------------------------------------------------------
-11b-11--8--------------------8---------------------------8----88~--
----------10br---8-------------10-8br---------------------8----88~--
-------------------------8h10-----------10-8h10--------8----10------
--------------------------------------------------8h10--------------
--------------------------------------------------------------------



------11------------------------------------------------
--/13----13-11h13---11----------------------------------
-----------------12----12-10br8------------8------------
--------------------------------------8h10----10-8-10---
---------------------------------8h10-------------------
--------------------------------------------------------


-------------------------------------------
-------------------------------------------
-----8-10-10br-8-10-------8-10-10br8-------
-/10-----------------/10-------------10----
-------------------------------------------
-------------------------------------------


------------------------------------------8----
------------------------------------------8----
-------8-----------------8---------10br8------
-/8------10-8----------8------8---------------
----10-----------8h10-------------------------
----------------------------------------------

That`s all.