Stop Censorship
 
 

 
 1-9 a b c d e f g h i j k l m n o p q r s t u v w x y z
   Sublime - Saw Red with Gwen Stefani Tab    

Sublime
Saw Red Featuring Gwen Stefani (NO Doubt)
Robbin the hood
agentskunker@netscape.net

Main Riff (ska)
e|-88---8--8--8-|-6--6--6--6--6------|
B|-88---8--8--8-|-6--6--6--6--6------|
G|-99-x-9-x9-x9-|-7-x7-x7-x7-x7------|
D|--------------|--------------------|
A|--------------|--------------------|
E|--------------|--------------------|

Chorus
e|--------|--------|-------|-------|--------|---------|--------|--------|--------|
B|--------|--------|-------|-------|--------|---------|--------|--------|--------|
G|--------|--------|-------|-------|--------|---------|--------|--------|--------|
D|--------|--------|-------|-------|10-(7X)-|-12-(7X)-|--------|--------|--------|
A|10-(7x)-|10-(7X)-|8-(7X)-|8-(7X)-|-8------|-10------|10-(7X)-|10 (7X)-|10-(1X)-|
E|-8------|-8------|6------|6------|--------|---------|-8------|-8------|-8------|

Outro:
4X Then
e|---8---8---7---7-|--------------------------------------8----|
B|---8---8---7---7-|---10---10---8---8---10---10------12--8----|
G|-XX9-xx9-xx8-xx8-|-xx10-xx10-xx8-xx8-xx10-xx10----12----9----|
D|-----------------|---10---10---8---8---10---10--12-----------|
A|-----------------|-------------------------------------------|
E|-----------------|-------------------------------------------|