Stop Censorship
 
 

 
 1-9 a b c d e f g h i j k l m n o p q r s t u v w x y z
   Sublime - Waiting For My Ruca Tab    

Artist- Sublime
Album- 40 Oz TO Freedeom
Song- Waiting For My Ruca
Standard Tuning

Theres not much guitar in this except for the intro, so here it is

e----------------------------------|
b---------0--------0---------------|
g----------------------------------|
d----------------------------------|
a---2----------1-------------------|
e----------------------------------|


bass is just
e---4----4-------4-----4|

pretty boring song


that wasnt long enough, so

e----------------------------------|
b---------0--------0---------------|
g----------------------------------|
d----------------------------------|
a---2----------1-------------------|
e----------------------------------|

e----------------------------------|
b---------0--------0---------------|
g----------------------------------|
d----------------------------------|
a---2----------1-------------------|
e----------------------------------|