Stop Censorship
 
 

 
 1-9 a b c d e f g h i j k l m n o p q r s t u v w x y z
   Sublime - What I Got Tab    

#----------------------------------PLEASE NOTE---------------------------------#
#This file is the author`s own work and represents their interpretation of the #
#song. You may only use this file for private study, scholarship, or research. #
#------------------------------------------------------------------------------#


Date: Mon, 30 Dec 1996 22:56:18 -0500 (EST)
From: "shelanu@erols.com"


LOVE IS "WHAT I GOT"--SUBLIME
this is the tab it may be off but w/out
this you wouldn`t have jack!(what u think I`m the mack!)no lyrics

U BASICLY PLAY THIS THE WHOLE TIME-
-----------------------------------------------------------
---3------3-----3-----3-----3-----3-----3-----3------------
-----2------2-----2-----2-----2-----2-----2-----2----------
-0------------0-----------0-----------0--------------------
-----------------------------------------------------------
--------3-----------3-----------3-----------3--------------

PLEASE FINGERPICK i don`t but that`s o>k>

---------1--------------------------------------
---1-1^3---3-1-1^3--7--5--3--3------------------
-2------------------7--5--4--4------------------
------------------------------------------------
------------------------------------------------
------------------------------------------------

O.K. HERE`S THE SOOLOO

-------------10---------------------------------
-------10^12----12--12^10--13--12---------------
-11^12--------------------------------12--------
------------------------------------------------
------------------------------------------------
------------------------------------------------

o.k. my work here is done 4 u smart *ss*s who know it better,or ?`s
e-mail me shelanu@erols.com
remember my name is EREZ not BRADLEY so it isn`t poyfect!see ya(don`t give
up it really ain`t that hard!)--well maybe 4/u!

From tboard@concentric.net Sun Jan 12 15:14:58 1997
Date: Sun, 12 Jan 1997 13:32:02 -0400
From: Tom Board
To: guitar@olga.net
Subject: Sublime-What I Got

Artist: Sublime
Album:Sublime
Track: #2
Song Title: What I Got
Written By: Bradley Nowell

Interpreted by TJ Board

Song is in key of D

Intro (Main Riff)
--------------------------------------------
----3-----3--------3-----3------------------
---2--2--0--0---2-2-2---0--0----------------
--0-------------0---------------------------
--------------------------------------------
--------3-------------3---------------------
(D) (G) (D) (G) Repeats


Solo Riff (don`t forget slides & vibrato):
~ = slide
+ = vibrato
--------------------------------------------
----------6+--------~7--5-------------------
-----5-~7---~7-5-7+-~7--5--9--7+------------
--~7-----------------------9--7+------------
--------------------------------------------
--------------------------------------------


----------10--7-7----8-7-------------------
-----7-10---------10-----8--9(Bend Up and hold)
-7-9---------------------------------------
-------------------------------------------
-------------------------------------------
-------------------------------------------

That is the whole song right there. If you have the other tabs for
Sublime then please send them to me. This was the easiest to figure out
so I did it. I can`t get any of the others.

TJ Board

tboard@concentric.net

Date: Mon, 07 Apr 1997 12:21:34 EDT
From: jason a gray

Song: What I Got
Artist: Sublime
Album: Sublime
Words and Music By: Brad Nowell, Eric Wilson, and Floyd Gaugh
Tabbed By: Jason Gray (sacred@juno.com)


Intro: (Moderate Rock/Hip-Hop: tempo = 96)

Rhy. Fig. 1 End Rhy. Fig. 1
Gtr. 1 (acoustic)
D G
e|----------------------------------------------|
B|*----------3----------------------3----------*|
G|---2-------------0h2----------0---------0h2---|
D|---0----0--------0------------0---------0-----|
A|*--------------------------------------------*|
E|------------------------3---------------------|

Riff A
Gtr. 2 (acoustic)
1/4bend /////
e|------------------------------------------------------------------------|
B|-------------6^-----------------------------7-----5----3---3------------|
G|-------5--7--------7---5--5h7---------------7-----5----4---4------------|
D|----7-------------------------------------------------------------------|
A|------------------------------------------------------------------------|
E|------------------------------------------------------------------------|

Riff A (cont.) End Riff
A
fullbend
e|----------------------10------------------------------------------------|
B|--------------10h12--------12---12p10---13--12---10--------------------*|
G|--11p----h12------------------------------------------12^----x--x---0---|
D|-------------------------------------------------------------x--x---0---|
A|-----------------------------------------------------------------------*|
E|------------------------------------------------------------------------|

Coda
D G D
e|-------------2---------------------3--------------------------2---------|
B|-------------------3---------------3---------3--------------------3-----|
G|----------2-----------2--------------------------2--------2-----------2-|
D|----0--------------------------0---------0-----------0------------------|
A|------------------------------------------------------------------------|
E|---------------------------3--------------------------------------------|

Coda (cont.)
G7 D G
e|---1----1----1------1----1----1--------------------2--------------------|
B|---0----0----0------0----0----0---------------------------3-------------|
G|---0----0----0------0----0----0----------------2--------------2---------|
D|---0-------------------------------------0------------------------------|
A|---2--------------------------------------------------------------------|
E|---3---------------------------------------------------------------3----|


Coda (cont.) End
Coda
D
e|----------------------------2---------------------------1---------------|
B|--------3---------3---------------3---------------------0---------------|
G|------------2-----2-----2-------------2-----------0-----0----------2----|
D|---0--------------0-------------------------------0-----0----------0----|
A|--------------------------------------------------2---------------------|
E|--------------------------------------------3---------------------------|

Rhy. Fig. 2
D C G D C G
e|------------------------------------------------------------------------|
B|------------3----------------3------------------3----------------3------|
G|-------2----------0------------------------2----------0-----------------|
D|--0----0------------------0-----------0----0------------------0---------|
A|---------------3----------------0h3----------------3----------------0h3-|
E|---------------------3-----------------------------------3--------------|

Rhy. Fig. 2 (cont.)
D C G D C G
e|------------------------------------------------------------------------|
B|------------3----------------3------------------3----------------3------|
G|-------2----------0------------------------2----------0-----------------|
D|--0----0------------------0-----------0----0------------------0---------|
A|---------------3----------------0h3----------------3----------------0h3-|
E|---------------------3-----------------------------------3--------------|

End Rhy. Fig. 2

e|------------------------------------|
B|------------------------------------|
G|---2--------------------------------|
D|---0--------------------------------|
A|------------------------------------|
E|------------------------------------|

Outro:
Gtr. 1
D G D G7
e|------------------------------------------------------1--1--1----1p0----|
B|----3-----3-----------------3--------3-----3----------0--0--0----0------|
G|----2----------0--0--0------0--------2----------0--0--0--0--0----0------|
D|----0----------0--0--0---------------0----------0--0--------------------|
A|------------------x--------------------------------2--------------------|
E|------------------3-----3--------3-----------------3--------------------|


Outro (cont.) (slower: tempo = 88) Fade
Out
D D
e|--2/----0-------------(0)-----------------------------------------------|
B|--3/----0-------------(0)---------------------------3-------------------|
G|--2/----0-------------(0)---------------------------2-------------------|
D|--0/------------------------------------------------0-------------------|
A|----------------------------------------------------0-------------------|
E|------------------------------------------------------------------------|


There you go. Real simple song, just D and G throughout the verses.
Questions, Comments, Corrections(yeah right!) welcome.

-Jason (sacred@juno.com)

sacred@juno.com


---------------------------
This file passed through:
Absolute Tabs
http:/www.tabs.co.za
---------------------------