Stop Censorship
 
 

 
 1-9 a b c d e f g h i j k l m n o p q r s t u v w x y z
   Suburban Legends - Powerful Game Tab    

Artist: Suburban Legends
Title: Powerful Game
Album: Rump Shaker
Written By: Brian Klemm
Tabbed By: Jimmy Brindley


Standard Tuning


Main Riff
|--------------------------------------------
|--------------------------------------------
|----6--7-----8--9--------------------------- x3
|-6--6--7--8--8--9---------------------------
|-6--4--5--8--6--7---------------------------
|-4--------6---------------------------------

On Fourth Time
|--------------------------------------------
|--------------------------------------------
|----6--7--8-8-8-8-9-9-9-9-------------------
|-6--6--7--8-8-8-8-9-9-9-9-------------------
|-6--4--5--6-6-6-6-7-7-7-7-------------------
|-4------------------------------------------

Verse: It`s not so easy...
|-4-4-4-4-4-4-4-4----------------------------
|-4-4-4-4-5-5-5-5----------------------------
|-5-5-5-5-6-6-6-6---------------------------- x4
|--------------------------------------------
|--------------------------------------------
|--------------------------------------------

Pre Chorus: You better watch out...
|--------------------------------------------
|--------------------------------------------
|-7-7----7-7--------------------------------- x3
|-7-7-7--7-7-7-------------------------------
|-5-5-7--5-5-7-------------------------------
|-----5------5-------------------------------

Oh yeah...
|--------------------------------------------
|--------------------------------------------
|-6~--7~--9~---------------------------------
|-6~--7~--9~---------------------------------
|-4~--5~--7~---------------------------------
|--------------------------------------------

Chorus: It`s just a powerful game...
|--------------------------------------------
|--------------------------------------------
|----6--7-----8--9--------------------------- x4
|-6--6--7--8--8--9---------------------------
|-6--4--5--8--6--7---------------------------
|-4--------6---------------------------------

My...girl
|--------------------------------------------
|--------------------------------------------
|--------------------------------------------
|-6~--6--------------------------------------
|-6~--6--------------------------------------
|-4~--4--------------------------------------

Verse 2: I look out...
|--------------------------------------------
|--------------------------------------------
|-------------6-6-6-6-6-6-------------------- x4
|-6-6-6-6-6-6-6-6-6-6-6-6--------------------
|-6-6-6-6-6-6-4-4-4-4-4-4--------------------
|-4-4-4-4-4-4--------------------------------
. . . . . . . .

Pre Chorus: You better watch out...
|--------------------------------------------
|--------------------------------------------
|-7-7----7-7--------------------------------- x2
|-7-7-7--7-7-7-------------------------------
|-5-5-7--5-5-7-------------------------------
|-----5------5-------------------------------

You better watch out...
|--------------------------------------------
|--------------------------------------------
|-9-9----9-9---------------------------------
|-9-9-9--9-9-9-------------------------------
|-7-7-9--7-7-9-------------------------------
|-----7------7-------------------------------

Put your hands in my pants...
|--------------------------------------------
|--------------------------------------------
|-6~--7~--9~---------------------------------
|-6~--7~--9~---------------------------------
|-4~--5~--7~---------------------------------
|--------------------------------------------

Chorus: It`s just a powerful game...
|--------------------------------------------
|--------------------------------------------
|----6--7-----8--9--------------------------- x4
|-6--6--7--8--8--9---------------------------
|-6--4--5--8--6--7---------------------------
|-4--------6---------------------------------

Bridge: Sarah likes to go for coffee
|--------------------------------------------
|--------------------------------------------
|--------------------------------------------
|-6~-----------------------------------------
|-6~-----------------------------------------
|-4~-----------------------------------------

I never pay when i go shopping
|--------------------------------------------
|--------------------------------------------
|-6~-----------------------------------------
|-6~-----------------------------------------
|-4~-----------------------------------------
|--------------------------------------------

If you can`t see...
|--------------------------------------------------
|--------------------------------------------------
|-------------6-6-6-6-6-6-7-7-7-7-7-7-9-9-9-9-9-9-- x2
|-6-6-6-6-6-6-6-6-6-6-6-6-7-7-7-7-7-7-9-9-9-9-9-9--
|-6-6-6-6-6-6-4-4-4-4-4-4-5-5-5-5-5-5-7-7-7-7-7-7--
|-4-4-4-4-4-4--------------------------------------
. . . . . . . . . . . . . . . . . . . .

Drum Solo thingy
|--------------------------------------------
|--------------------------------------------
|-9~---9~---9~---9~-------------------------- x2
|-9~---9~---9~---9~--------------------------
|-7~---7~---7~---7~--------------------------
|--------------------------------------------

Guitar Solo - Backing Guitar
|--------------------------------------------
|--------------------------------------------
|----6--7-----8--9--------------------------- x4
|-6--6--7--8--8--9---------------------------
|-6--4--5--8--6--7---------------------------
|-4--------6---------------------------------

Lead Guitar just does a pentatonic riff in the key of A

Breakdown
|--------------------------------------------
|--------------------------------------------
|--------------------------------------------
|-6~---------------6~------------------------
|-6~---------------6~------------------------
|-4~---------------4~------------------------

Last Chorus: Just a powerful game...
|--------------------------------------------
|--------------------------------------------
|----6--7-----8--9--------------------------- x8
|-6--6--7--8--8--9---------------------------
|-6--4--5--8--6--7---------------------------
|-4--------6---------------------------------

Rock!...Rock!...
|--------------------------------------------
|--------------------------------------------
|-7-7-7-7-7-7-9-9-9-9-9-9--------------------
|-7-7-7-7-7-7-9-9-9-9-9-9--------------------
|-5-5-5-5-5-5-7-7-7-7-7-7--------------------
|--------------------------------------------

Outro
|--------------------------------------------
|--------------------------------------------
|-7-7----7-7----7-7----7-7-8-----------------
|-7-7-7--7-7-7--7-7-7--7-7-8-----------------
|-5-5-7--5-5-7--5-5-7--5-5-6-----------------
|-----5------5------5------------------------



www.themordons.tk