Stop Censorship
 
 

 
 1-9 a b c d e f g h i j k l m n o p q r s t u v w x y z
   Such A Surge - Im Falschen Film Tab    

Title: Im falschen Film
Interpret: Such A Surge
Album: Der Surge Effekt
tabbd by: Thomas Baumgarte


Tuning: Db, Ab, db, gb, bb, eb



Intro/Verse:

|---------------------|---------------------|
|---------------------|---------------------|
|-----------2---0-----|--------5-5-5-555----|
|----0----------------|----0---5-5-5-555----|
|----0----0-----------|----0---3-3-3-333----|
|----0----------------|----0----------------|




Bridge:

|-----------------------|----------------|
|-----------------------|----------------|
|-----------------------|----------------|
|----0-0-0-0-2-2-3-3----|----5-5-5-23----|
|----0-0-0-0-2-2-3-3----|----5-5-5-23----|
|----0-0-0-0-2-2-3-3----|----5-5-5-23----|



Chorus:


|----------------------------------------|
|----------------------------------------|
|-------------55555----------------------|
|----233-333--55555--2323-335-5-55555----|
|----233-333--33333--2323-335-5-55555----|
|----233-333---------2323-335-5-55555----|