Stop Censorship
 
 

 
 1-9 a b c d e f g h i j k l m n o p q r s t u v w x y z
   Sugar Ray - 10 Seconds Down Tab    

"10 Seconds Down" by Sugar Ray on Lemonade and Brownies
C# Tuning

Main riff (intro, verse_
C#----------------------
G#----------------------
E-----------------------
B-----------------------
F#---5----4-2---5----4-2
C#---3-0--2-0---3-0--2-0

Riff 1 (Played before Riff 2)
C#-----------------
G#-----------------
E------------------
B------------------
F#-------12------12
C#---0-0-10--0-0-10

Riff 2 (Played before the verse)
C#-----------------
G#---5h6-5-7--7-7-7
E------------------
B------------------
F#-----------------
C#-----------------

Riff 3 (Played before the interlude)
C#--------------------
G#--------------------
E----9----------------
B----9----------------
F#---7----5-7-8-7-5--2
C#-----0--3-5-6-5-3--0

Chorus
C#----------------
G#----------------
E-----------------
B-----------------
F#---7-5-2---5-4-2
C#---5-3-0---3-2-0

Interlude
C#--------------------------------------------
G#--------------------------------------------
E---------------------------------------------
B---------------------------------------------
F#--------------------------------------------
C#---5-3-0--3h5-6-5--12-10--15--12-11-10-5-3-0

Enjoy
-wicksickles-