Stop Censorship
 
 

 
 1-9 a b c d e f g h i j k l m n o p q r s t u v w x y z
   Sugar Ray - Answer The Phone Tab    

Author/Artist: Sugar Ray
Title: Answer The Phone
Album: Sugar Ray
Transcribed by: Tim Herscovitch
Email: Gringle@aol.com

EADGBE Tuning
(Standard)

Clean riff/Intro

e|------------------------------------------------------------------------------
B|------------------------------------------------------------------------------
G|------8------8--------8------8--------8------8-------8------8-----------------
D|----6---6--6---6----6---6--6---6----6---6--6---6---6---6--6---6---------------
A|------------------6---------------8--------------4----------------------------
E|-4----------------------------------------------------------------------------

Main distorted chord progression:
e|------------------------------------------------------------------------------
B|------------------------------------------------------------------------------
G|----------------------------------8-8-8-8-8-8-8-8-8-8-8-8-8-8-8---------------
D|-6-6-6-6-6-6-6-6-6-6-6-6-6-6-6-6--8-8-8-8-8-8-8-8-8-8-8-8-8-8-8---------------
A|-6-6-6-6-6-6-6-6-6-6-6-6-6-6-6-6--6-6-6-6-6-6-6-6-6-6-6-6-6-6-6---------------
E|-4-4-4-4-4-4-4-4-4-4-4-4-4-4-4-4----------------------------------------------


e|------------------------------------------------------------------------------
B|------------------------------------------------------------------------------
G|-10-10-10-10-10-10-10-10-10-10-10-10-10-10-10-10-6-6-6-6-6-6-6-6-6-6-6-6-6-6--
D|-10-10-10-10-10-10-10-10-10-10-10-10-10-10-10-10-6-6-6-6-6-6-6-6-6-6-6-6-6-6--
A|-8--8--8--8--8--8--8--8--8--8--8--8--8--8--8--8--4-4-4-4-4-4-4-4-4-4-4-4-4-4--
E|------------------------------------------------------------------------------


This is played during the second verse loop

e|------------------------------------------------------------------------------
B|------------------------------------------------------------------------------
G|------------------------------------------------------------------------------
D|-6----------------------------------------------------------------------------
A|-6----------------------------------6-6-6-6-6-6-6-6-6-6-6-6-6-6-6-6-----------
E|-4--4-4-4-4-4-4-4-4-4-4-4-4-4-4-4-4-------------------------------------------
pm.............................................................

e|------------------------------------------------------------------------------
B|------------------------------------------------------------------------------
G|------------------------------------------------------------11-11-11-11-------
D|------------------------------------------------------------11-11-11-11-------
A|-8-8-8-8-8-8-8-8-8-8-8-8-8-8-8-8--9-9-9-9-9-9-9-9-9-9-9-9-9-9--9--9--9--------
E|------------------------------------------------------------------------------
pm......................................................

This is played after the bridge. The slide on the
E string is a pick slide.

e|------------------------------------------------------------------------------
B|------------------------------------------------------------------------------
G|----------------------------------------8888888888888888----------------------
D|----------------------66666666666666666-8888888888888888-10101010101010101010-
A|----------------------66666666666666666-6666666666666666-10101010101010101010-
E|-///\\\-44444444444444444------------------8-8-8-8-8-8-8-8-8-8--


e|------------------------------------------------------------------------------
B|------------------------------------------------------------------------------
G|------------------------------------------------------------------------------
D|-101010101010-11111111111111111111111111111111--------------------------------
A|-101010101010-11111111111111111111111111111111--------------------------------
E|-8-8-8-8-8-8--9-9-9-9-9-9-9-9-9-9-9-9-9-9-9-9---------------------------------


Song ends on this chord

e|--------|
B|--------|
G|--------|
D|-6------|
A|-6------|
E|-4------|