Stop Censorship
 
 

 
 1-9 a b c d e f g h i j k l m n o p q r s t u v w x y z
   Sugar Ray - Slipping Away (The Beach Soundtrack) Tab    

"Slipping Away" - Sugar Ray
The Beach Soundtrack

-- I looked everywhere for a tab for this song, but couldn`t
find one....so I made one myself. This is a simple, but very
fun song to play (even if you aren`t a huge Sugar Ray fan like
myself). I think it is pretty accurate...you might have to try
it a few times to get the timing down though. Enjoy!...


-|-10--10-10-10-10--10--x--13--x--10-------10--10-10-10-10--10|
-|-11--11-11-11-11--11--x--13--x--11-------11--11-11-11-11--11|
-|------------------------------------------------------------|
-|------------------------------------------------------------|
-|------------------------------------------------------------|
-|------------------------------------------------------------|

-|-x--13--x--10-------8---8--8--8--8---8--x--10--x---8--------|
-|-x--13--x--11------10--10-10-10-10--10--x--11--x--10--------|
-|------------------------------------------------------------|
-|------------------------------------------------------------|
-|------------------------------------------------------------|
-|------------------------------------------------------------|

-|-10--10-10-10-10--10--x--11--x--10-------10--10-10-10-10--10|
-|-11--11-11-11-11--11--x--13--x--11-------11--11-11-11-11--11|
-|------------------------------------------------------------|
-|------------------------------------------------------------|
-|------------------------------------------------------------|
-|------------------------------------------------------------|

-|-x--11--x--10-------11--11-11-11-11--11--x--13--x--11-------|
-|-x--13--x--11-------11--11-11-11-11--11--x--13--x--11-------|
-|------------------------------------------------------------|
-|------------------------------------------------------------|
-|------------------------------------------------------------|
-|------------------------------------------------------------|

-|-11--11-11-11-11--11--x--13--x--11-------------------------||
-|-11--11-11-11-11--11--x--13--x--11-----------------------o-||
-|-----------------------------------------------------------||
-|-----------------------------------------------------------||
-|---------------------------------------------------------o-||
-|-----------------------------------------------------------||

* just repeat these 4 bars throughout the entire song