Stop Censorship
 
 

 
 1-9 a b c d e f g h i j k l m n o p q r s t u v w x y z
   Sugarcoma - Start Of The End Tab    

Drop d tuning


INTRO/CHORUS
E--------------------------------------------------
B--------------------------------------------------
G--------------------------------------------------
D--------------------------------------------------
A--0-0-7p6-7p6--3-10--0-0-7p6-7p6--3-10
D--0-0-7p6-7p6--3-10--0-0-7p6-7p6--3-10


VERSE
E--------------------------------------------------
B---------10----------------10-------------------
G-------9-----------------9----------------------
D----10---------------10-------------------------
A--------------------------------------------------
D --------------------------------------------------


VERSE CONTINUED
E------------------------------------------------------------------------------
B--------------------------------8-----------------------------------8---------
G---7h9-7----------7h9-7----------------7h9-7---------7h9-----------------
D-----------10--------------10---------------------10----------10------------
A-------------------------------------------------------------------------------
D -------------------------------------------------- ---------------------------


FILL BASS PLAYS THIS BUT SOUNDS GOOD ON BOTTOM D MUTED
GUITAR JOINS IN WITH BASS WHERE SHOWN. SLIDE FROM ANYWHERE DOWN
E---------------------------------------------------------------------------------
B---------------------------------------------------------------------------------
G---------------------------------------------------------------------------------
D---------------------------------start sliding!------------------------------------------------
A---------------------------------------------------------------------------------
D-----0-0-3-3-2-3-2-3-1-------0-0-3-3-2-3-2-3-1---------------------------


FILL CONT.GUITAR JOINS IN WITH BASS. SLIDE FROM ANYWHERE DOWN
E------------------------------------------------------
B-----------------------pause between these--------
G--------------------------------------------------------
D---------------------------------------------------------
A-----0-0-3-3-2-3-2-3-1-------0-0-3-3-2-3-2-3-1----
D-----0-0-3-3-2-3-2-3-1-------0-0-3-3-2-3-2-3-1-----

OUTRO
E----------------------------------------------------
B----------------------------------------------------
G----------------------------------------------------
D----------------------------------------------------
A---0-0-3-3-1-1-1-1-1----------------------------
D---0-0-3-3-1-1-1-1-1-----------------------------


STUCTURE OF TRACK

INTRO x8
VERSE x2
CHORUS x8
VERSE x2
CHORUS x8
FILL (palm muted)x4
FILL (no mute)x4
CHORUSx8
OUTRO x4

WATCH OUT FOR THE END OF THE CHORUS BARS COZ THERE IS A SECOND GUITAR PART WHICH PLAYS THE THREE NOTES OF THE VERSE.YOU CAN PLAY IT IF YOU WANT BUT I THINK THIS IS EASIER.
THIS IS MY FIRST TAB SO PLEASE RATE IT AND IF YOU SPOT ANY ERRORS LET ME KNOW PLZ. HAVE FUN!!!!
Davo McDave