Stop Censorship
 
 

 
 1-9 a b c d e f g h i j k l m n o p q r s t u v w x y z
   Suicidal Tendencies - Cyco Vision Tab    





1st Guitar

Intro X1
e-|--------------------------------------------------|
B-|--<<<<<<<<<<5---////////////////--|
G-|--------------------------------------------------|
D-|--------------------------------------------------|
A-|--------------------------------------------------|
E-|--------------------------------------------------|


e-|--------------------------------------------------|
B-|-------------------------------------------5/12---|
G-|--------------------------------------------------|
D-|--------------------------------------------------|
A-|--------------------------------------------------|
E-|--------------------------------------------------|


e-|--------------------------------------------------|
B-|-(12)-/////////////////////--|
G-|--------------------------------------------------|
D-|--------------------------------------------------|
A-|--------------------------------------------------|
E-|--------------------------------------------------|


e-|--------------------------------------------------|
B-|-(12)-////////////////12//\--|
G-|--------------------------------------------------|
D-|--------------------------------------------------|
A-|--------------------------------------------------|
E-|--------------------------------------------------|



riff 1 X6
e-|------------------------------------------|
B-|------------------------------------------|
G-|------------------------------------------|
D-|--9-9-9-9--10-10-10-10--7-7-7-7-7-7-7-7---|
A-|--9-9-9-9--10-10-10-10--7-7-7-7-7-7-7-7---|
E-|--7-7-7-7---8--8--8--8--5-5-5-5-5-5-5-5---|


Riff 2 X4
e-|--------------------------|
B-|--------------------------|
G-|--------------------------|
D-|--4--2-----4--x--x--x--x--|
A-|--4--2-----4--x--x--x--x--|
E-|--2--0-----2--x--x--x--x--|

Riff 3 X4
e-|--------------------------------------------------|
B-|--------------------------------------------------|
G-|--------------6-/7--6-/7--------------------------|
D-|--4--4-----4--6-/7--6-/7--2--2--2--2--2--2--2--2--|
A-|--4--4-----4--4-/5--4-/5--2--2--2--2--2--2--2--2--|
E-|--2--2-----2--------------0--0--0--0--0--0--0--0--|

Riff 2 X4

Riff 3 X4

Solo
e-|-------15b(17)------------------------------------|
B-|--------------------------13p15-13b(15)-----------|
G-|--------------------------------------------------|
D-|-------------------------------------------12-14--|
A-|--------------------------------------------------|
E-|--------------------------------------------------|


e-|--------------------------------------------------|
B-|--------------------------------------------------|
G-|-12b(14)------------------------------------------|
D-|--------14---------------1412p10h12--------------|
A-|--------------------------------------------------|
E-|--------------------------------------------------|


e-|----------17---------17----------17----------17-15----------------|
B-|-15b(17)-----15b(17)-----15b(17)-----15b(17)-------15b(17)r15-13--|
G-|------------------------------------------------------------------|
D-|------------------------------------------------------------------|
A-|------------------------------------------------------------------|
E-|------------------------------------------------------------------|


e-|-----------------------------15b(17)//////--|
B-|-15b(17)r15-13----15b(17)-13----------------------|
G-|---------------14---------------------------------|
D-|--------------------------------------------------|
A-|--------------------------------------------------|
E-|--------------------------------------------------|


Riff 1 X4

riff2 X4

riff3 X4

riff4 X1
e-|-----------------------------|
B-|-----------------------------|
G-|-----------------------------|
D-|--4--4--4--4--4--4--4--4--4--|
A-|--4--4--4--4--4--4--4--4--4--|
E-|--2--2--2--2--2--2--2--2--2--|
. . . . . . . .



2nd Guitar


riff 1 X 10
e-|------------------------------------------|
B-|------------------------------------------|
G-|------------------------------------------|
D-|--9-9-9-9--10-10-10-10--7-7-7-7-7-7-7-7---|
A-|--9-9-9-9--10-10-10-10--7-7-7-7-7-7-7-7---|
E-|--7-7-7-7---8--8--8--8--5-5-5-5-5-5-5-5---|

riff2 X4
e-|--------------------------|
B-|--------------------------|
G-|--------------------------|
D-|--4--2-----4--x--x--x--x--|
A-|--4--2-----4--x--x--x--x--|
E-|--2--0-----2--x--x--x--x--|

riff3 X4
e-|--------------------------------------------------|
B-|--------------------------------------------------|
G-|--------------6-/7--6-/7--------------------------|
D-|--4--4-----4--6-/7--6-/7--2--2--2--2--2--2--2--2--|
A-|--4--4-----4--4-/5--4-/5--2--2--2--2--2--2--2--2--|
E-|--2--2-----2--------------0--0--0--0--0--0--0--0--|

riff2 X4

riff3 X4


riff1 X8


riff2 X4

riff3 X4

riff4 X1
e-|-----------------------------|
B-|-----------------------------|
G-|-----------------------------|
D-|--4--4--4--4--4--4--4--4--4--|
A-|--4--4--4--4--4--4--4--4--4--|
E-|--2--2--2--2--2--2--2--2--2--|
. . . . . . . .