Stop Censorship
 
 

 
 1-9 a b c d e f g h i j k l m n o p q r s t u v w x y z
   Suicidal Tendencies - Cyco Vision Tab    

artist: Suicidal Tendencies
song: Cyco Vision

e-|--------------------------------------------------|
B-|--------------------------------------------------|
G-|--4--4--4--4--5--5--5--5--2--2--2--2--2--2--2--2--|
D-|--4--4--2--4--5--5--3--5--2--2--2--2--2--2--2--2--|
A-|--2--2--2--2--3--3--3--3--0--0--0--0--0--0--0--0--|
E-|--------------------------------------------------|

e-|--------------------------|
B-|--------------------------|
G-|--------------------------|
D-|--4--2-----4--x--x--x--x--|
A-|--4--2-----4--x--x--x--x--|
E-|--2--0-----2--x--x--x--x--|

e-|--------------------------------------------------|
B-|--------------------------------------------------|
G-|--------------6-/7--6-/7--------------------------|
D-|--4--4-----4--6-/7--6-/7--2--2--2--2--2--2--2--2--|
A-|--4--4-----4--4-/5--4-/5--2--2--2--2--2--2--2--2--|
E-|--2--2-----2--------------0--0--0--0--0--0--0--0--|

e-|---------------------------|
B-|---------------------------|
G-|---------------------------|
D-|--4--2-----4--/--/-x-----|
A-|--4--2-----4--/--/-x-----|
E-|--2--0-----2--/--/-x-----|

e-|-----------------------------|
B-|-----------------------------|
G-|-----------------------------|
D-|--4--4--4--4--4--4--4--4--4--|
A-|--4--4--4--4--4--4--4--4--4--|
E-|--2--2--2--2--2--2--2--2--2--|