Stop Censorship
 
 

 
 1-9 a b c d e f g h i j k l m n o p q r s t u v w x y z
   Suicidal Tendencies - Cyco Vision Tab    

Intro
|---------------------------------|
|---------------------------------|
|-4-4-4-4-4-4-4-4-4-4-4-4-4-4-4-4-| x8
|-4-4-4-4-5-5-5-5-2-2-2-2-2-2-2-2-|
|-2-2-2-2-3-3-3-3-0-0-0-0-0-0-0-0-|
|---------------------------------|

Riff 1
|-----------------------------------|
|-----------------------------------|
|-----------------------------------|
|-4-2-4---------4-2-4---------4-2-4-|
|-4-2-4---------4-2-4---------4-2-4-|
|-2-0-2---------2-0-2---------2-0-2-|

Riff 2
|-------------------------------|
|-------------------------------|
|-------6-6-6-6-----------------|
|-4-4-4-6-6-6-6-2-2-2-2-2-2-2-2-|
|-4-4-4-4-4-4-4-2-2-2-2-2-2-2-2-|
|-2-2-2---------0-0-0-0-0-0-0-0-|

riff 1
riff 2 (x4)
intro (x8)


|-------------------|
|-------------------|
|-------------------|
|-4-4-4-4-4-4-4-4-4-|
|-4-4-4-4-4-4-4-4-4-|
|-2-2-2-2-2-2-2-2-2-|