Stop Censorship
 
 

 
 1-9 a b c d e f g h i j k l m n o p q r s t u v w x y z
   Suicidal Tendencies - Half Way Up My Head Tab    

Song: Half way up my head
Band: Suicidal Tendencies
Album: Freedumb

Tabbed by: Christian Reindel (creindel@gmx.de)
any questions or corrections- e-mail me

Intro, Chorus
Slow Part
G:----------------------------------:
D:----------------------------------:
A:---2---5---7----------------------:
E:---0---3---5----5h6p5h6-----------:

Verse
Faster Part/Ska-Part
G:--------------------------------:
D:--9-9-9-9-9--5-5-4-4-4----------:
A:--7-7-7-7-7--3-3-2-2-2----------:
E:--------------------------------:

Pre Chorus
G:-------------------------------------------:
D:-------------------------------------------:
A:--7-7-5-7-5-5-5-5--7-7-7-7-8-8-8-8---------:
E:--5-5-5-5-3-3-3-3--5-5-5-5-6-6-6-6---------:

End