Stop Censorship
 
 

 
 1-9 a b c d e f g h i j k l m n o p q r s t u v w x y z
   Summer Hero - Tainted Hearts Tab    

Tainted Hearts
Summer Hero
Composer: Summer Hero
Tabbed By: Chris Fairweather

Dropped D Tuning

Intro

Gtr 1
e-----------------------------------|
b-----------------------------------|
g-7-------7-7---------------7-7-----|
d-7---4-4-7-7-7-2-4-4---4-4-7-7-7-2-|
a-5---4-4-5-5-7-2-4-4---4-4-5-5-7-2-|
d-----4-4-----7-2-4-4---4-4-----7-2-|

Gtr 2
e---------------------------|-----------------------------|
b---------------------------|-----------------------------|
g---------------------------|-----------------------------|
d-0-0-4-7-4-0-4-7-4-0-4-7-4-|-0-0-4-7-4-0-0-0-0-4-7-4-0-0-|
a---------------------------|-----------------------------|
d-------------------------x3|---------------------------x1|x2

Verse

Both Gtrs
e---------------|-----|
b---------------|-----|
g---------7-6---|-----|
d-4-4-xxx-7-6---|-2---|
a-4-4-xxx-5-4---|-2---|
d-4-4-xxx-----x3|-2-x1|x2

Pre Chorus

Gtr 1
e---0-----0-----0-|
b-----------------|
g-----2-----2-----|
d-----------------|
a-0---------------|
d-------6-----2---|

Chorus

Both Gtrs
e-----------------------|
b-----------------------|
g-----------------------|
d-0-0-2-4-0-0-2-4-0-0-2-|
a-0-0-2-4-0-0-2-4-0-0-2-|
d-0-0-2-4-0-0-2-4-0-0-2-|

Repeat Verse thru Chorus again.

Bridge

Gtr 1
e-------------|
b-------------|
g-------------|
d-4-4-4-0-0-0-|
a-4-4-4-0-0-0-|
d-4-4-4-0-0-0-|x4

Gtr 2
e-------------------------|
b-------------------------|
g-------------------------|
d-4-7-4-0-4-7-4-0-4-7-4-0-|
a-------------------------|
d-------------------------|x5

Bridge Cont`d

Gtr 1
e-----|
b-----|
g-----|
d-4-0-|
a-4-0-|
d-4-0-|x4

Gtr 2
e---------------------------------------------|
b---------------------------------------------|
g------------------------------------------4--|
d-74-0-4-0-2--74-0-4--74-0-4-0-2--74-0----|
a---------------------------------------------|
d---------------------------------------------|x2

Bridge End

Gtr 1
e---------|
b---------|
g---------|
d-7-6-2-2-|
a-7-6-2-2-|
d-7-6-2-2-|

Gtr 2
e-----------------|
b-----------------|
g-----------------|
d-4-7-4-0-4-7-4-0-| End on D (d-0)
a-----------------|
d-----------------|x3

After this, go back to the Chorus and play it once, then play the Verse riff twice, and then finish with the
Pre Chorus, letting the last notes ring.

Im not in this band, but this is a band from my home town that`s starting to get big, and I know a lot of people
who want to learn this song. If you want to give it a listen and learn it, go to www.summerhero.com and select
track 4 on the audio player.