Stop Censorship
 
 

 
 1-9 a b c d e f g h i j k l m n o p q r s t u v w x y z
   Sunk Loto - Lift Full Tab    


Misc. GUITAR

D A D G B E (low to high) / or drop C


RIFF A (clean.)
|----------------------------------|-----------------------------------|
|----------------------------------|-----------------------------------|
|----------------------------------|-----------------------------------|
|----------------------------------|-----------------------------------|
|----------------------------------|-----------------------------------|
|---0-0-0-2-2-2-3-3-3-2-2-2-3-3-2--|-6-6-6-5-5-5-6-6-6-5-5-5-6-(6)/10--|


RIFF B (w/ dist.)
|----------------------------------|-----------------------------------|
|----------------------------------|-----------------------------------|
|----------------------------------|-----------------------------------|
|----------------------------------|-6-6-6-5-5-5-6-6-6-5-5-5-6-(6)/10--|
|----------------------------------|-6-6-6-5-5-5-6-6-6-5-5-5-6-(6)/10--|
|---0-0-0-2-2-2-3-3-3-2-2-2-3-3-2--|-6-6-6-5-5-5-6-6-6-5-5-5-6-(6)/10--|


RIFF C (w/ dist.)
|----------------------------------|-----------------------------------|
|----------------------------------|-----------------------------------|
|----------------------------------|-----------------------------------|
|---0-0-0-2-2-2-3-3-3-2-2-2-3-3-2--|-6-6-6-5-5-5-6-6-6-5-5-5-6-(6)/10--|
|---0-0-0-2-2-2-3-3-3-2-2-2-3-3-2--|-6-6-6-5-5-5-6-6-6-5-5-5-6-(6)/10--|
|---0-0-0-2-2-2-3-3-3-2-2-2-3-3-2--|-6-6-6-5-5-5-6-6-6-5-5-5-6-(6)/10--|


RIFF D (w/ dist.)
|----------------------------------|-----------------------------------|
|----------------------------------|-----------------------------------|
|----------------------------------|-----------------------------------|
|---0-0-0-2-2-2-3-3-3-2-2-2-3-3-2--|-6-6--5-5--6----------------------|
|---0-0-0-2-2-2-3-3-3-2-2-2-3-3-2--|-6-6--5-5--6----------------------|
|---0-0-0-2-2-2-3-3-3-2-2-2-3-3-2--|-6-6--5-5--6----------------------|


RIFF E (w/ dist.)
|----------------------------------|-----------------------------------|
|----------------------------------|-----------------------------------|
|----------------------------------|-----------------------------------|
|--54--2-2^4--x-x--4/5--2-2--2^4--|--54--2-2^4--x-x--4/5--2-2--2^4---|
|--54--2-2^4--x-x--4/5--2-2--2^4--|--54--2-2^4--x-x--4/5--2-2--2^4---|
|--54--2-2^4--x-x--4/5--2-2--2^4--|--54--2-2^4--x-x--4/5--2-2--2^4---|


RIFF F (w/ dist.)
|----------------------------------|-----------------------------------|
|----------------------------------|-----------------------------------|
|----------------------------------|-----------------------------------|
|--54--2-2^4--x-x--4/5--2-2--2^4--|--54--2-2^4--x-x-x-x-x-x----------|
|--54--2-2^4--x-x--4/5--2-2--2^4--|--54--2-2^4--x-x-x-x-x-x-<5>-<5>--|
|--54--2-2^4--x-x--4/5--2-2--2^4--|--54--2-2^4--x-x-x-x-x-x----------|


RIFF G (w/ dist.)
|----------------------------------|-----------------------------------|
|----------------------------------|-----------------------------------|
|----------------------------------|-----------------------------------|
|--54--2-2^4--x-x--4/5--2-2--2^4--|--54--2-2^4--x-x--4/5--x-x-x-x----|
|--54--2-2^4--x-x--4/5--2-2--2^4--|--54--2-2^4--x-x--4/5--x-x-x-x----|
|--54--2-2^4--x-x--4/5--2-2--2^4--|--54--2-2^4--x-x--4/5--x-x-x-x----|


RIFF H (w/ dist.)
|----------------------------------|-----------------------------------|
|----------------------------------|-----------------------------------|
|-------------------5---------(5)--|-------------------5---------(5)---|
|---0-----6----3----5---------(5)--|---0-----6----3----5---------(5)---|
|---0-----6----3----3---------(3)--|---0-----6----3----3---------(3)---|
|---0-----6----3-------------------|---0-----6----3--------------------|


RIFF I (w/ dist.)
|----------------------------------|-----------------------------------|
|----------------------------------|-----------------------------------|
|-3-3-3-3-3-3-3-3------------------|--3-3-3-3-3-3-3-3------------------|
|-3-3-3-3-3-3-3-3------------------|--3-3-3-3-3-3-3-3------------------|
|-1-1-1-1-1-1-1-1-0-0-0-0-0-0-0-0--|--1-1-1-1-1-1-1-1-0-0-0-0-0-0-0-0--|
|-----------------0-0-0-0-0-0-0-0--|------------------0-0-0-0-0-0-0-0--|


RIFF J (w/ dist.)
|----------------------------------|-----------------------------------|
|----------------------------------|-----------------------------------|
|-3-3-3-3-3-3-3-3------------------|-----------------------------------|
|-3-3-3-3-3-3-3-3------------------|--7-7-7-7-7-7-7-7-7-7-7-7-7-7-7-7--|
|-1-1-1-1-1-1-1-1-0-0-0-0-0-0-0-0--|--7-7-7-7-7-7-7-7-7-7-7-7-7-7-7-7--|
|-----------------0-0-0-0-0-0-0-0--|--7-7-7-7-7-7-7-7-7-7-7-7-7-7-7-7--|


RIFF K (w/ dist.)
|----------------------------------|-----------------------------------|
|----------------------------------|-----------------------------------|
|----------------------------------|-----------------------------------|
|--4/5---2-2^4--x-4/5----x--x-x----|-----------------------------------|
|--4/5---2-2^4--x-4/5----x--x-x----|-----------------------------------|
|--4/5---2-2^4--x-4/5----x--x-x----|-----------------------------------|


RIFF L (w/ dist & wah-wah.)
|----------------------------------|-----------------------------------|
|---------------<5>-<5>------------|-----------------<5>-<5>-----------|
|---------------<5>-<5>------------|-----------------<5>-<5>-----------|
|----------------------------------|-----------------------------------|
|----------------------------------|-----------------------------------|
|---3-3-3-3-3----------------------|---3-3-3-3-3-----------------------|


RIFF M (w/ dist & digital delay.)
|----------------------------------|-----------------------------------|
|----------------------------------|-----------------------------------|
|----------------------------------|-----------------------------------|
|-3-}-}-}-}-}-}-}-}----------------|---3-}-}-}-}-}-}-}-}---------------|
|----------------------------------|-----------------------------------|
|----------------------------------|-----------------------------------|


RIFF N (w/ dist & digital delay.)
|----------------------------------|-----------------------------------|
|----------------------------------|-----------------------------------|
|-3-}-}-}-}-}-}-}-}----------------|-----------------------------------|
|----------------------------------|-----3-----------------------------|
|----------------------------------|-----3-----------------------------|
|----------------------------------|-----3-----------------------------|


RIFF O (w/ dist & vibration effect.)
|----------------------------------|-----------------------------------|
|----------------------------------|-----------------------------------|
|----------------------------------|-----------------------------------|
|--0--------------------(0)--------|---0--------------------(0)--------|
|--0--------------------(0)--------|---0--------------------(0)--------|
|----------------------------------|-----------------------------------|

|----------------------------------|-----------------------------------|
|----------------------------------|-----------------------------------|
|----------------------------------|-----------------------------------|
|--0--------------------(0)--------|---0--------------------(0)--------|
|--0--------------------(0)--------|---0--------------------(0)--------|
|----------------------------------|-----------------------------------|

|----------------------------------|-----------------------------------|
|----------------------------------|-----------------------------------|
|----------------------------------|-----------------------------------|
|--0--------------------(0)--------|---0--------------------<5>--------|
|--0--------------------(0)--------|---0--------------------<5>--------|
|----------------------------------|-----------------------------------|


RIFF P (w/ dist.)
|----------------------------------|-----------------------------------|
|----------------------------------|-----------------------------------|
|------------------5---------------|-------5---------------------5-----|
|--0------6---3----5-----0------6--|--3----5-----0------6---3----5-----|
|--0------6---3----3-----0------6--|--3----3-----0------6---3----3-----|
|--0------6---3----------0------6--|--3----------0------6---3----------|

|----------------------------------|-----------------------------------|
|----------------------------------|-----------------------------------|
|------------------5---------------|------------5----------------------|
|--0------6---3----5-----0------6--|--3--x-x-x--5-----0------6----3----|
|--0------6---3----3-----0------6--|--3--x-x-x--3-----0------6----3----|
|--0------6---3----------0------6--|--3--x-x-x--------0------6----3----|

|----------------------------------|-----------------------------------|
|----------------------------------|-----------------------------------|
|--------5-------------------------|--5--------------------------------|
|-x-x-x--5-----0------6---3--x-x-x-|--5-----0------6----3----0---------|
|-x-x-x--3-----0------6---3--x-x-x-|--3-----0------6----3----0---------|
|-x-x-x--------0------6---3--x-x-x-|--------0------6----3----0---------|