Stop Censorship
 
 

 
 1-9 a b c d e f g h i j k l m n o p q r s t u v w x y z
   Sunk Loto - Make Me Feel Tab    





band-sunk loto
song-make you feel
tuning(D,A,D,g,b,e)
tabbed-bizkitboy6056


Intro-

D----10-10-12---10-10-12---------||
A----10-10-12---10-10-12---------||
D----10-10-12---10-10-12---------||


Pre-Verse-

D------------------------0/13---------|| from the 0`s slide up all the way to the
A-0/--15-12--10-0-/15-12------12------|| note and then play.
D-------------------------------------||

Verse-

e---17----17---19---15---------||
b------------------------------||*times this by 3*
g------------------------------||
D------------------------------||
A-----12----12---15---10-------||
D------------------------------||

e--17--------------------------||
b-------19--18-----------------||
g------------------------------||
D-----------------12-12-12-----||
A----12-----------12-12-12-----||
D---------15--14--12-12-12-----||


Chorus-

D--3-3-7-10-7-0-0-----3-3-7-10-7-0-0-0------||
A--3-3-7-10-7-0-0-8-9-3-3-7-10-7-0-0-0-8-9--||
D--3-3-7-10-7-0-0-----3-3-7-10-7-0-0-0------||

D--3-3-7-10-7-0-0-----3-3-7-10-7-0-0----------------||
A--3-3-7-10-7-0-0-8-9-3-3-7-10-7-0-0-5-5-5-5-0-0----||
D--3-3-7-10-7-0-0-----3-3-7-10-7-0-0---------0-0----||

g---7-----7----5-5---||
D---7-----7----5-5---|| *times this by 4*
A---5-----5----3-3---||


*the bit were jason says*"the money and the power"......

D------------------------------||
A------------------------------|| *times by 8*
D-0-6-6-0-6-0-6-6-0-6-6-0-6----||

the bit were jason says "SEND YOU BLLLIIINNNDDDDD"

D-0-0-0--0-6-6-0-6-0-6-0-0-0-0-0-6-6-0-6-0-6-0-0-1-----||
A-0-0-0--0-6-6-0-6-0-6-0-0-0-0-0-6-6-0-6-0-6-0-0-1-----||
D-0-0-0--0-6-6-0-6-0-6-0-0-0-0-0-6-6-0-6-0-6-0-0-1-----||

end song on-

D-1-||
A-1-||
D-1-||


thats its hope you enjoy it!!!!!