Stop Censorship
 
 

 
 1-9 a b c d e f g h i j k l m n o p q r s t u v w x y z
   Sunk Loto - Vinegar Stroke Tab    




Band-Sunk Loto
Song-Vinegar Stroke
Tabbed by bizkitboy6056

drop D tuning-(D A D g b e)

Verse-

g-------6--7-------------------6--7-------------------||
D---4X--4--7--6--7---3-----4X--6--7--6--6--7--7-------||
A---4X--4--5--6--7---3-----4X--4--5--6--6--7--7-------||
D---4X--------6--7---3-----4X--------6--6--7--7-------||

Heivy Bit-

g----------6-6-6--7-7-7-----------------------||
D---4-4-4--4-4-4--5-5-5--6-6-6--7-7-7--3------||
A---4-4-4--4-4-4--5-5-5--6-6-6--7-7-7--3------||
D---4-4-4--4-4-4--5-5-5--6-6-6--7-7-7--3------||

Chorus-

D----5--4--0---| |---5*-----|| the * is harmonics.
A----5--4--0---|X by 5|----------||
D----5--4--0---| |----------||

Outro-

D---3H6--3H6--3H6--3H6--0--2--3H6---||
A---3H6--3H6--3H6--3H6--0--2--3H6---||
D---3H6--3H6--3H6--3H6--0--2--3H6---||

thats it,enjoy!