Stop Censorship
 
 

 
 1-9 a b c d e f g h i j k l m n o p q r s t u v w x y z
   Sunna - I/m Not Trading Tab    

Artist: Sunna
Song Title: I`m Not Trading
Album Title: One Minute Silence

Intro/Verse:
E------------------------------
B------------------------------
G----44-5-2--------------------
D-22-44-5-2--------------------
A-22-22-3-0--------------------
E-00---------------------------

Chorus:
E------------------------------
B------------------------------
G----44-5-2--------------------
D-22-44-5-2--------------------
A-22-22-3-0--------------------
E-00---------------------------

Verse:
E------------------------------
B------------------------------
G----44-5-2--------------------
D-22-44-5-2--------------------
A-22-22-3-0--------------------
E-00---------------------------

Chorus:
E------------------------------
B------------------------------
G----44-5-2--------------------
D-22-44-5-2--------------------
A-22-22-3-0--------------------
E-00---------------------------