Stop Censorship
 
 

 
 1-9 a b c d e f g h i j k l m n o p q r s t u v w x y z
   Sunny Day Real Estate - Sometimes Tab    

song: sometimes
band: sunny day real estate
tabbed by: absolutelyfibulous@hotmail.com

tune down 1 whole step
dgcfad

main riff
---------

1]-----------------
2]-3-3-3-----------
3]-0-0-0-----------
4]-0-0-0-----------
5]-4-4-4h5-4---4---
6]-----------5---5-

pre chorus
----------

1]------------14-14-------
2]------15----------15----
3]---14----14----------14-
4]-0---------------------- x2
5]------------------------
6]------------------------

1]------------12-12-------
2]------15----------15----
3]---14----14----------14-
4]-0---------------------- x2
5]------------------------
6]------------------------

chorus
------

1]-----------------------------------------
2]-----------------------------------------
3]-----------------------------------------
4]-12--12-12-12-9--9-9-9-8--8-8-8-8--8-8-8- x3
5]-12--12-12-12-9--9-9-9-8--8-8-8-8--8-8-8-
6]-10--10-10-10-7--7-7-7-6--6-6-6-6--6-6-6-

bridge
------

1]-------------------------------------------------
2]-------------------------------------------------
3]-16-16-16-16-16-16-16-16-18-18-18-18-18/19-19-19-
4]-------------------------------------------------
5]-14-14-14-14-14-14-14-14-16-16-16-16-16/17-17-17-
6]-------------------------------------------------

end on:
1]----
2]----
3]-16-
4]----
5]-14-
6]----