Stop Censorship
 
 

 
 1-9 a b c d e f g h i j k l m n o p q r s t u v w x y z
   Sunshine - Streamlined Tab    

Sunshine - Streamlined

Standard Tuning

Intro G1
--------------------------------------
---10-------------------------------
---------7-----9--------------------
---------------------7h9-----------
------------------------------------
------------------------------------

Intro G2
-------------------------------------------
----------------------------------8-------
-------------------------------------------
-------------------------------------------
------------------------------------------
-------------------------------------------

Verse G1
----------------------------------------------------------
-10-10-10----------------------------------------------
-------------7--7--7--9--9--9--------------------------
----------------------------------7--7--7--7h9--9--9--
----------------------------------------------------------
----------------------------------------------------------

Verse G2
---------------------------------
---------------------------------
---------------------------------
---------------------------------
-------------2------------------
----(5)--5-----3---2--3--5----

Verse 2 G1
----------------------------------
-------------------4-------------
---4--5--7---7------5----------
---------------------------------
---------------------------------
---------------------------------

Verse 2 G1
--------------------------------
--------------------------------
--------------------------------
---4--5--7------7--9--5------
---4--5--7------7--9--5------
---2--3--5------5--7--3------

Verse 3 G1
----------------------------------------------------
---10-10-10--------------------------------------
----------------7-7-7--9-9-9---------------------
---------------------------------7-7-7-7h9-9-9--
----------------------------------------------------
----------------------------------------------------

Transition G2 - Really quick delay
---------------------
---------------------
---------------------
------5-------------
------5-------------
------3-------------

Verse 4 G1
----------------------------------
--------------8-----8----(10^)-
---9------9-----7---------------
---------------------------------
--------------------------------
---------------------------------

Verse 4 G2
------------------------
------------8----------
--9-----9-----7-------
------------------9^--
-----------------------
-----------------------

Verse 5 G1
-----------------------------------
--------------8------8---(10^)--
---9------9-----7----------------
----------------------------------
----------------------------------
----------------------------------

Verse 5 G2
----------------------------------
---------------------------------
----------------------------------
---------------------------------
-----------2---------------------
--(5)--5-----3------2--3--5---


Outro G1 G2 just makes strange noises
----------
----6----
----9----
----------
----------
----------