Stop Censorship
 
 

 
 1-9 a b c d e f g h i j k l m n o p q r s t u v w x y z
   Super Furry Animals - Golden Retriever Tab    

Tabbed by mark d D tuning

Intro (drums,feedback and bass kick in)
e|---------------------5------------------------------------------------------|
B|----------------------------------------------------------------------------|
G|----------------------------------------------------------------------------|
D|-----------------------0---0---0---0---3---3---5---5---0---0---0---0---3---3|
A|----------------------------------------------------------------------------|
E|-12-12-10----7---5---0---0---0---0---3---3---5---5---0---0---0---0---3---3--|

e|---------------------------------------------------------------------------|
B|---------------------------------------------------------------------------|
G|---------------------------------------------------------------------------|
D|---5---5-------------------------------------------------------------------|
A|---------------------------------------------------------------------------|
E|-5---5---------------------------------------------------------------------|

Verse (with feedback,drums and bass)
e|---------------------------------------------------------------------------|
B|---------------------------------------------------------------------------|
G|---------------------------------------------------------------------------|
D|---0---0---0---0---3---3---5---5-------------------------------------------|
A|------------------------------------------------------------------X-4------|
E|-0---0---0---0---3---3---5---5---------------------------------------------|

Chorus (with feedback,drums and bass)
e|---------------------------------------------------------------------------|
B|---------------------------------------------------------------------------|
G|---------------------------------------------------------------------------|
D|-0-0-0-0-0-0-0-3-3-3-3-5-5-5-5-0-0-0-0-0-0-0-3-3-3-3-5-5-5-5---------------|
A|-0-0-0-0-0-0-0-3-3-3-3-5-5-5-5-0-0-0-0-0-0-0-3-3-3-3-5-5-5-5---------------|
E|-0-0-0-0-0-0-0-3-3-3-3-5-5-5-5-0-0-0-0-0-0-0-3-3-3-3-5-5-5-5---------------|

e|---------------------------------------------------------------------------|
B|---------------------------------------------------------------------------|
G|---------------------------------------------------------------------------|
D|-0-0-0-0-0-0-0-3-3-3-3-5-5-5-5-0-0-0-0-0-0-0-3-3-3-3-5-5-5-5---------------|
A|-0-0-0-0-0-0-0-3-3-3-3-5-5-5-5-0-0-0-0-0-0-0-3-3-3-3-5-5-5-5---------------|
E|-0-0-0-0-0-0-0-3-3-3-3-5-5-5-5-0-0-0-0-0-0-0-3-3-3-3-5-5-5-5---------------|

Verse 2 (just guitar and vocals)
e|---------------------------------------------------------------------------|
B|---------------------------------------------------------------------------|
G|---------------------------------------------------------------------------|
D|---0---0---0---0---3---3---5---5-------------------------------------------|
A|------------------------------------------------X-4------------------------|
E|-0---0---0---0---3---3---5---5---------------------------------------------|

Chorus (with feedback,drums and bass)
e|---------------------------------------------------------------------------|
B|---------------------------------------------------------------------------|
G|---------------------------------------------------------------------------|
D|-0-0-0-0-0-0-0-3-3-3-3-5-5-5-5-0-0-0-0-0-0-0-3-3-3-3-5-5-5-5---------------|
A|-0-0-0-0-0-0-0-3-3-3-3-5-5-5-5-0-0-0-0-0-0-0-3-3-3-3-5-5-5-5---------------|
E|-0-0-0-0-0-0-0-3-3-3-3-5-5-5-5-0-0-0-0-0-0-0-3-3-3-3-5-5-5-5---------------|

e|---------------------------------------------------------------------------|
B|---------------------------------------------------------------------------|
G|---------------------------------------------------------------------------|
D|-0-0-0-0-0-0-0-3-3-3-3-5-5-5-5-0-0-0-0-0-0-0-3-3-3-3-5-5-5-5---------------|
A|-0-0-0-0-0-0-0-3-3-3-3-5-5-5-5-0-0-0-0-0-0-0-3-3-3-3-5-5-5-5---------------|
E|-0-0-0-0-0-0-0-3-3-3-3-5-5-5-5-0-0-0-0-0-0-0-3-3-3-3-5-5-5-5---------------|

e|---------------------------------------------------------------------------|
B|---------------------------------------------------------------------------|
G|---------------------------------------------------------------------------|
D|-0-0-0-0-0-0-0-3-3-3-3-5-5-5-5-0-0-0-0-0-0-0-3-3-3-3-5-5-5-5--X-4----------|
A|-0-0-0-0-0-0-0-3-3-3-3-5-5-5-5-0-0-0-0-0-0-0-3-3-3-3-5-5-5-5---------------|
E|-0-0-0-0-0-0-0-3-3-3-3-5-5-5-5-0-0-0-0-0-0-0-3-3-3-3-5-5-5-5---------------|

e|-9-10-10-9-10-10-9-10-10-9-10-10--------------lots-of-times----------------|
B|---------------------------------------------------------------------------|
G|---------------------------------------------------------------------------|
D|---------------------------------------------------------------------------|
A|---------------------------------------------------------------------------|
E|---------------------------------------------------------------------------|

End On
e|-5---------15--------------------------------------------------------------|
B|---------------------------------------------------------------------------|
G|---------------------------------------------------------------------------|
D|---------------------------------------------------------------------------|
A|---------------------------------------------------------------------------|
E|---------------------------------------------------------------------------|