Stop Censorship
 
 

 
 1-9 a b c d e f g h i j k l m n o p q r s t u v w x y z
   Super Mario Bros - Theme Tab    

Song: Super Mario Bros. 1 - Theme Song
Tabbed By: Tim Barr
MX ID: SpADeD
Date: 5/24/04

Guitar 1

E||--2-2--2--2-2--7----3----|--0----------------------|
B||-------------------------|------1-------1--3--2-1--|
G||-------------------------|----------0--------------|
D||-------------------------|-------------------------|
A||-------------------------|-------------------------|
E||-------------------------|-------------------------|



------3---7---8--5-7--5----------|--0----------------------|
--1----------------------5-6-----|-----------------3--2-1--|
-----------------------------7---|------5---0---5----------|
---------------------------------|-------------------------|
---------------------------------|-------------------------|
---------------------------------|-------------------------|



------3---7---8--5-7--5----------|----12-11-10---------------------------|
--1----------------------5-6-----|-------------12--13--------------------|
-----------------------------7---|---------------------------12-----9-10-|
---------------------------------|---------------------14-15-----10------|
---------------------------------|---------------------------------------|
---------------------------------|---------------------------------------|



----12-11-10---------13--13-13----|----12-11-10---------------------------|
-------------12--13---------------|-------------12--13--------------------|
----------------------------------|---------------------------12-----9-10-|
----------------------------------|---------------------14-15-----10------|
----------------------------------|---------------------------------------|
----------------------------------|---------------------------------------|



----------------------|----12-11-10---------------------------|
----9-----------------|-------------12--13--------------------|
--------10---9--------|---------------------------12-----9-10-|
----------------------|---------------------14-15-----10------|
----------------------|---------------------------------------|
----------------------|---------------------------------------|



----12-11-10---------13--13-13----|----12-11-10---------------------------|
-------------12--13---------------|-------------12--13--------------------|
----------------------------------|---------------------------12-----9-10-|
----------------------------------|---------------------14-15-----10------|
----------------------------------|---------------------------------------|
----------------------------------|---------------------------------------|



----------------------|------------6----0--0------|--4-4--4--4-6-3---------|
----9-----------------|--9-9--9--9----8------1----|------------------------|
--------10---9--------|---------------------------|------------------------|
----------------------|---------------------------|------------------------|
----------------------|---------------------------|------------------------|
----------------------|---------------------------|------------------------|



--4-4--4--4-6--3-0--0------|--2-2--2--2-2--7----3----|--0----------------------|
----------------------1----|-------------------------|------1-------1--3--2-1--|
---------------------------|-------------------------|----------0--------------|
---------------------------|-------------------------|-------------------------|
---------------------------|-------------------------|-------------------------|
---------------------------|-------------------------|-------------------------|



------3---7---8--5-7--5----------|--0----------------------|
--1----------------------5-6-----|-----------------3--2-1--|
-----------------------------7---|------5---0---5----------|
---------------------------------|-------------------------|
---------------------------------|-------------------------|
---------------------------------|-------------------------|



------3---7---8--5-7--5----------|--8-5-----------8--8------|
--1----------------------5-6-----|-------5---5--6------6----|
-----------------------------7---|--------------------------|
---------------------------------|--------------------------|
---------------------------------|--------------------------|
---------------------------------|--------------------------|



------13---13---13---12---10---8-------------|--8---------------8--8------|
--8------------------------------10----------|----10-----------------6----|
-------------------------------------10-9----|--------9---9--10-----------|
---------------------------------------------|----------------------------|
---------------------------------------------|----------------------------|
---------------------------------------------|----------------------------|



----10--10-10---8---7----------------|--8---------------8--8------|
--8---------------------8------------|----10-----------------6----|
--------------------------9--9-------|--------9---9--10-----------|
-------------------------------10----|----------------------------|
-------------------------------------|----------------------------|
-------------------------------------|----------------------------|



------13---13---13---12---10---8-------------|--8---------------8--8------|
--8------------------------------10----------|----10-----------------6----|
-------------------------------------10-9----|--------9---9--10-----------|
---------------------------------------------|----------------------------|
---------------------------------------------|----------------------------|
---------------------------------------------|----------------------------|



----10--10-10---8---7----------------|------------6----0--0------|
--8---------------------8------------|--9-9--9--9----8------1----|
--------------------------9--9-------|---------------------------|
-------------------------------10----|---------------------------|
-------------------------------------|---------------------------|
-------------------------------------|---------------------------|



--4-4--4--4-6-3---------|--4-4--4--4-6--3-0--0------|--2-2--2--2-2--7----3----|
------------------------|----------------------1----|-------------------------|
------------------------|---------------------------|-------------------------|
------------------------|---------------------------|-------------------------|
------------------------|---------------------------|-------------------------|
------------------------|---------------------------|-------------------------|



--8-5-----------8--8------|------13---13---13---12---10---8-------------|
-------5---5--6------6----|--8------------------------------10----------|
--------------------------|-------------------------------------10-9----|
--------------------------|---------------------------------------------|
--------------------------|---------------------------------------------|
--------------------------|---------------------------------------------|



--8---------------8--8------|----10--10-10---8---7----------------||
----10-----------------6----|--8---------------------8------------||
--------9---9--10-----------|--------------------------9--9-------||
----------------------------|-------------------------------10----||
----------------------------|-------------------------------------||
----------------------------|-------------------------------------||

Guitar 2:

E||---------------3---------|-------------------------|
B||-------------------------|-------------------------|
G||--------------------0----|--0--------------0-------|
D||--0-0--0--0-0------------|------2-------3-----4-3--|
A||-------------------------|----------3--------------|
E||-------------------------|-------------------------|



----------0---1----0-------------|-------------------------|
------1----------3----1----0-----|-------------------------|
-------------------------2---0---|--0--------------0-------|
--2------------------------------|------2-------3-----4-3--|
---------------------------------|----------3--------------|
---------------------------------|-------------------------|



----------0---1----0-------------|-------------------------|
------1----------3----1----0-----|----------1------1-1-----|
-------------------------2---0---|------0------------------|
--2------------------------------|-------------3--------3--|
---------------------------------|--3----------------------|
---------------------------------|-------------------------|



---------------15--15-15------|-----------------------------|
------------1-----------------|-----------------------------|
----------0-------------------|-----------------------------|
------2-----------------------|-----------10------10-10-----|
--3---------------------------|------10-------8----------8--|
--------------------------15--|--8--------------------------|



-------------------------|-------------------------|
-------------------------|----------1------1-1-----|
-------------5-----------|------0------------------|
-----6---8-------5-5-----|-------------3--------3--|
----------------------3--|--3----------------------|
--8----------------------|-------------------------|



---------------15--15-15------|-----------------------------|
------------1-----------------|-----------------------------|
----------0-------------------|-----------------------------|
------2-----------------------|-----------10------10-10-----|
--3---------------------------|------10-------8----------8--|
--------------------------15--|--8--------------------------|



-------------------------|------------------------|------------------------|
-------------------------|------------------------|------------------------|
-------------5-----------|----------1--0----------|----------1--0----------|
-----6---8-------5-5-----|------1-----------------|------1-----------------|
----------------------3--|-----------------3------|-----------------3------|
--8----------------------|--4------------------3--|--4------------------3--|



------------------------|---------------3---------|-------------------------|
------------------------|-------------------------|-------------------------|
----------1--0----------|--------------------0----|--0--------------0-------|
------1-----------------|--0-0--0--0-0------------|------2-------3-----4-3--|
-----------------3------|-------------------------|----------3--------------|
--4------------------3--|-------------------------|-------------------------|



----------0---1----0-------------|-------------------------|
------1----------3----1----0-----|-------------------------|
-------------------------2---0---|--0--------------0-------|
--2------------------------------|------2-------3-----4-3--|
---------------------------------|----------3--------------|
---------------------------------|-------------------------|



----------0---1----0-------------|---------------------------|
------1----------3----1----0-----|-----------1--------1-1----|
-------------------------2---0---|--------0------------------|
--2------------------------------|------4-------3--3------3--|
---------------------------------|--3------------------------|
---------------------------------|---------------------------|



---------------------------|---------------------------|
-----------0--------1-1----|-----------1--------1-1----|
--------0-----0--0------0--|--------0------------------|
--0---3--------------------|------4-------3--3------3--|
---------------------------|--3------------------------|
---------------------------|---------------------------|



--------------------------------|---------------------------|
-----------------0---1----------|-----------1--------1-1----|
--0-0--0-0---2----------0-------|--------0------------------|
--------------------------------|------4-------3--3------3--|
---------------------------3----|--3------------------------|
--------------------------------|---------------------------|



---------------------------|---------------------------|
-----------0--------1-1----|-----------1--------1-1----|
--------0-----0--0------0--|--------0------------------|
--0---3--------------------|------4-------3--3------3--|
---------------------------|--3------------------------|
---------------------------|---------------------------|



--------------------------------|------------------------|
-----------------0---1----------|------------------------|
--0-0--0-0---2----------0-------|----------1--0----------|
--------------------------------|------1-----------------|
---------------------------3----|-----------------3------|
--------------------------------|--4------------------3--|



------------------------|------------------------|---------------3---------|
------------------------|------------------------|-------------------------|
----------1--0----------|----------1--0----------|--------------------0----|
------1-----------------|------1-----------------|--0-0--0--0-0------------|
-----------------3------|-----------------3------|-------------------------|
--4------------------3--|--4------------------3--|-------------------------|



---------------------------|---------------------------|
-----------1--------1-1----|-----------0--------1-1----|
--------0------------------|--------0-----0--0------0--|
------4-------3--3------3--|--0---3--------------------|
--3------------------------|---------------------------|
---------------------------|---------------------------|



---------------------------|--------------------------------||
-----------1--------1-1----|-----------------0---1----------||
--------0------------------|--0-0--0-0---2----------0-------||
------4-------3--3------3--|--------------------------------||
--3------------------------|---------------------------3----||
---------------------------|--------------------------------||