Stop Censorship
 
 

 
 1-9 a b c d e f g h i j k l m n o p q r s t u v w x y z
   Super Mario Land - Birabuto (world 1) Tab    

Song: Super Mario Land - World 1: Birabuto
Tabbed By: Tim Barr
MX ID: SpADeD
Date: 11/18/04

Guitar 1 (Lead):
E||------------------|--3--2--1-0-----------|--0---------0-----------|
B||------------------|--5--3--2-1-----------|-------3-1----------1-3-|
G||------------------|----------------------|------------------------|
D||------------------|----------------------|------------------------|
A||------------------|----------------------|------------------------|
E||------------------|----------------------|------------------------|



--0--0--------0--1--3--5--|------------------------|
--------3--1--------------|----------------1-1-----|
--------------------------|----5--5--2--0----------|
--------------------------|------------------------|
--------------------------|------------------------|
--------------------------|------------------------|



----------------14-15--14-15------|-----------------------------|
-----------0----------------------|-----------------------------|
-----0--2--------------12---------|--------------9----------7-9-|
--3----------------17----------14-|-------12-10----------10-----|
----------------------------------|-----------------------------|
----------------------------------|-----------------------------|



-------------5--3--0--0----|-------------0----------1-|
------------------------3--|----1--1--3-----1-1-------|
----9--7--5----------------|--------------------------|
---------------------------|--------------------------|
---------------------------|--------------------------|
---------------------------|--------------------------|



----0----------14-15--3----|----5--7--8--7---------|----------------------0--|
-------1--3----------------|-----------------8-----|--6----8-6---5--6--7--8--|
----------------------0----|-----------------------|-------------5--7--8-----|
------------------17-------|-----------------------|-------------------------|
---------------------------|-----------------------|-------------------------|
----------------------3----|-----------------------|-------------------------|



----5--7--8--7---------|--11--10----8---------0-----|--0---------0-----------|
-----------------8-----|---------------8-8-6--------|-------3-1----------1-3-|
-----------------------|---------------0---------7--|------------------------|
-----------------------|-------------------------0--|------------------------|
-----------------------|-------------------8--7-----|------------------------|
-----------------------|----------------------------|------------------------|



--0--0--------0--1--3--5--|------------------------|
--------3--1--------------|----------------1-1-----|
--------------------------|----5--5--2--0----------|
--------------------------|------------------------|
--------------------------|------------------------|
--------------------------|------------------------|



----------------14-15--14-15------|-----------------------------|
-----------0----------------------|-----------------------------|
-----0--2--------------12---------|--------------9----------7-9-|
--3----------------17----------14-|-------12-10----------10-----|
----------------------------------|-----------------------------|
----------------------------------|-----------------------------|



-------------5--3--0--0----|-------------0----------1-|
------------------------3--|----1--1--3-----1-1-------|
----9--7--5----------------|--------------------------|
---------------------------|--------------------------|
---------------------------|--------------------------|
---------------------------|--------------------------|



----0----------14-15--3----|----5--7--8--7---------|----------------------0--|
-------1--3----------------|-----------------8-----|--6----8-6---5--6--7--8--|
----------------------0----|-----------------------|-------------5--7--8-----|
------------------17-------|-----------------------|-------------------------|
---------------------------|-----------------------|-------------------------|
----------------------3----|-----------------------|-------------------------|



----5--7--8--7---------|--11--10----8---------0-----|--0---------0-----------|
-----------------8-----|---------------8-8-6--------|-------3-1----------1-3-|
-----------------------|---------------0---------7--|------------------------|
-----------------------|-------------------------0--|------------------------|
-----------------------|-------------------8--7-----|------------------------|
-----------------------|----------------------------|------------------------|



--0--0--------0--1--3--5--|------------------------|
--------3--1--------------|----------------1-1-----|
--------------------------|----5--5--2--0----------|
--------------------------|------------------------|
--------------------------|------------------------|
--------------------------|------------------------|



----------------14-15--14-15------|-----------------------------|
-----------0----------------------|-----------------------------|
-----0--2--------------12---------|--------------9----------7-9-|
--3----------------17----------14-|-------12-10----------10-----|
----------------------------------|-----------------------------|
----------------------------------|-----------------------------|



-------------5--3--0--0----|-------------0----------1-|
------------------------3--|----1--1--3-----1-1-------|
----9--7--5----------------|--------------------------|
---------------------------|--------------------------|
---------------------------|--------------------------|
---------------------------|--------------------------|



----0----------14-15--3----|----5--7--8--7---------|----------------------0--|
-------1--3----------------|-----------------8-----|--6----8-6---5--6--7--8--|
----------------------0----|-----------------------|-------------5--7--8-----|
------------------17-------|-----------------------|-------------------------|
---------------------------|-----------------------|-------------------------|
----------------------3----|-----------------------|-------------------------|



----5--7--8--7---------|--11--10----8---------0-----|--0---------0-----------|
-----------------8-----|---------------8-8-6--------|-------3-1----------1-3-|
-----------------------|---------------0---------7--|------------------------|
-----------------------|-------------------------0--|------------------------|
-----------------------|-------------------8--7-----|------------------------|
-----------------------|----------------------------|------------------------|



--0--0--------0--1--3--5--|------------------------|
--------3--1--------------|----------------1-1-----|
--------------------------|----5--5--2--0----------|
--------------------------|------------------------|
--------------------------|------------------------|
--------------------------|------------------------|



----------------14-15--14-15------|-----------------------------|
-----------0----------------------|-----------------------------|
-----0--2--------------12---------|--------------9----------7-9-|
--3----------------17----------14-|-------12-10----------10-----|
----------------------------------|-----------------------------|
----------------------------------|-----------------------------|



-------------5--3--0--0----|-------------0----------1-|
------------------------3--|----1--1--3-----1-1-------|
----9--7--5----------------|--------------------------|
---------------------------|--------------------------|
---------------------------|--------------------------|
---------------------------|--------------------------|



----0----------14-15--3----|----5--7--8--7---------|----------------------0--|
-------1--3----------------|-----------------8-----|--6----8-6---5--6--7--8--|
----------------------0----|-----------------------|-------------5--7--8-----|
------------------17-------|-----------------------|-------------------------|
---------------------------|-----------------------|-------------------------|
----------------------3----|-----------------------|-------------------------|



----5--7--8--7---------|--11--10----8---------0-----|--0---------0-----------|
-----------------8-----|---------------8-8-6--------|-------3-1----------1-3-|
-----------------------|---------------0---------7--|------------------------|
-----------------------|-------------------------0--|------------------------|
-----------------------|-------------------8--7-----|------------------------|
-----------------------|----------------------------|------------------------|



--0--0--------0--1--3--5--|------------------------|
--------3--1--------------|----------------1-1-----|
--------------------------|----5--5--2--0----------|
--------------------------|------------------------|
--------------------------|------------------------|
--------------------------|------------------------|



----------------14-15--14-15------|-----------------------------|
-----------0----------------------|-----------------------------|
-----0--2--------------12---------|--------------9----------7-9-|
--3----------------17----------14-|-------12-10----------10-----|
----------------------------------|-----------------------------|
----------------------------------|-----------------------------|



-------------5--3--0--0----|-------------0----------1-|
------------------------3--|----1--1--3-----1-1-------|
----9--7--5----------------|--------------------------|
---------------------------|--------------------------|
---------------------------|--------------------------|
---------------------------|--------------------------|



----0----------14-15--3----|----5--7--8--7---------|----------------------0--|
-------1--3----------------|-----------------8-----|--6----8-6---5--6--7--8--|
----------------------0----|-----------------------|-------------5--7--8-----|
------------------17-------|-----------------------|-------------------------|
---------------------------|-----------------------|-------------------------|
----------------------3----|-----------------------|-------------------------|



----5--7--8--7---------|--11--10----8---------0-----|--0---------0-----------|
-----------------8-----|---------------8-8-6--------|-------3-1----------1-3-|
-----------------------|---------------0---------7--|------------------------|
-----------------------|-------------------------0--|------------------------|
-----------------------|-------------------8--7-----|------------------------|
-----------------------|----------------------------|------------------------|



--0--0--------0--1--3--5--|------------------------|
--------3--1--------------|----------------1-1-----|
--------------------------|----5--5--2--0----------|
--------------------------|------------------------|
--------------------------|------------------------|
--------------------------|------------------------|



----------------14-15--14-15------|-----------------------------|
-----------0----------------------|-----------------------------|
-----0--2--------------12---------|--------------9----------7-9-|
--3----------------17----------14-|-------12-10----------10-----|
----------------------------------|-----------------------------|
----------------------------------|-----------------------------|



-------------5--3--0--0----|-------------0----------1-|
------------------------3--|----1--1--3-----1-1-------|
----9--7--5----------------|--------------------------|
---------------------------|--------------------------|
---------------------------|--------------------------|
---------------------------|--------------------------|



----0----------14-15--3----|----5--7--8--7---------|----------------------0--|
-------1--3----------------|-----------------8-----|--6----8-6---5--6--7--8--|
----------------------0----|-----------------------|-------------5--7--8-----|
------------------17-------|-----------------------|-------------------------|
---------------------------|-----------------------|-------------------------|
----------------------3----|-----------------------|-------------------------|



----5--7--8--7---------|--11--10----8---------0-----||
-----------------8-----|---------------8-8-6--------||
-----------------------|---------------0---------7--||
-----------------------|-------------------------0--||
-----------------------|-------------------8--7-----||
-----------------------|----------------------------||



Guitar 2:
E||------------------|------------------|--------------------------|
B||------------------|------------------|--------------------------|
G||------------------|------------------|-----0-----0-----1-----1--|
D||------------------|------------------|--------------------------|
A||------------------|------------------|--3-----3-----3-----3-----|
E||------------------|------------------|--------------------------|



--------------------------|--------------------------|----------------------|
--------------------------|--------------------------|----------------------|
-----2-----2-----3--0--3--|-----2-----2-----0-----0--|-----0-----0----------|
--------------------------|--3-----3-----2-----2-----|--0-----0-------------|
--3-----3-----3-----------|--------------------------|----------------------|
--------------------------|--------------------------|----------------------|



--------------------------|--------------------------|
--------------------------|--------------------------|
-----0-----0-----1-----1--|-----2-----2-----3--0--3--|
--------------------------|--------------------------|
--3-----3-----3-----3-----|--3-----3-----3-----------|
--------------------------|--------------------------|



--------------------------|----------------------|----------------------|
--------------------------|----------------------|----------------------|
-----2-----2-----0-----0--|-----0-----0----------|----------------------|
--3-----3-----2-----2-----|--0-----0-------------|--3----3----2----2----|
--------------------------|----------------------|----------------------|
--------------------------|----------------------|----------------------|



------------------------|----------------------|------------------------|
------------------------|----------------------|------------------------|
---------------------0--|----------------------|------------0-----------|
--0----0----2--3--4--2--|--3----3----2----2----|--0----0----2--0--2--0--|
------------3--5--6-----|----------------------|---------------8--3--2--|
------------------------|----------------------|------------------------|



--------------------------|--------------------------|
--------------------------|--------------------------|
-----0-----0-----1-----1--|-----2-----2-----3--0--3--|
--------------------------|--------------------------|
--3-----3-----3-----3-----|--3-----3-----3-----------|
--------------------------|--------------------------|



--------------------------|----------------------|--------------------------|
--------------------------|----------------------|--------------------------|
-----2-----2-----0-----0--|-----0-----0----------|-----0-----0-----1-----1--|
--3-----3-----2-----2-----|--0-----0-------------|--------------------------|
--------------------------|----------------------|--3-----3-----3-----3-----|
--------------------------|----------------------|--------------------------|



--------------------------|--------------------------|----------------------|
--------------------------|--------------------------|----------------------|
-----2-----2-----3--0--3--|-----2-----2-----0-----0--|-----0-----0----------|
--------------------------|--3-----3-----2-----2-----|--0-----0-------------|
--3-----3-----3-----------|--------------------------|----------------------|
--------------------------|--------------------------|----------------------|



----------------------|------------------------|----------------------|
----------------------|------------------------|----------------------|
----------------------|---------------------0--|----------------------|
--3----3----2----2----|--0----0----2--3--4--2--|--3----3----2----2----|
----------------------|------------3--5--6-----|----------------------|
----------------------|------------------------|----------------------|



------------------------|--------------------------|--------------------------|
------------------------|--------------------------|--------------------------|
------------0-----------|-----0-----0-----1-----1--|-----2-----2-----3--0--3--|
--0----0----2--0--2--0--|--------------------------|--------------------------|
---------------8--3--2--|--3-----3-----3-----3-----|--3-----3-----3-----------|
------------------------|--------------------------|--------------------------|



--------------------------|----------------------|--------------------------|
--------------------------|----------------------|--------------------------|
-----2-----2-----0-----0--|-----0-----0----------|-----0-----0-----1-----1--|
--3-----3-----2-----2-----|--0-----0-------------|--------------------------|
--------------------------|----------------------|--3-----3-----3-----3-----|
--------------------------|----------------------|--------------------------|



--------------------------|--------------------------|----------------------|
--------------------------|--------------------------|----------------------|
-----2-----2-----3--0--3--|-----2-----2-----0-----0--|-----0-----0----------|
--------------------------|--3-----3-----2-----2-----|--0-----0-------------|
--3-----3-----3-----------|--------------------------|----------------------|
--------------------------|--------------------------|----------------------|



----------------------|------------------------|----------------------|
----------------------|------------------------|----------------------|
----------------------|---------------------0--|----------------------|
--3----3----2----2----|--0----0----2--3--4--2--|--3----3----2----2----|
----------------------|------------3--5--6-----|----------------------|
----------------------|------------------------|----------------------|



------------------------|--------------------------|--------------------------|
------------------------|--------------------------|--------------------------|
------------0-----------|-----0-----0-----1-----1--|-----2-----2-----3--0--3--|
--0----0----2--0--2--0--|--------------------------|--------------------------|
---------------8--3--2--|--3-----3-----3-----3-----|--3-----3-----3-----------|
------------------------|--------------------------|--------------------------|



--------------------------|----------------------|--------------------------|
--------------------------|----------------------|--------------------------|
-----2-----2-----0-----0--|-----0-----0----------|-----0-----0-----1-----1--|
--3-----3-----2-----2-----|--0-----0-------------|--------------------------|
--------------------------|----------------------|--3-----3-----3-----3-----|
--------------------------|----------------------|--------------------------|



--------------------------|--------------------------|----------------------|
--------------------------|--------------------------|----------------------|
-----2-----2-----3--0--3--|-----2-----2-----0-----0--|-----0-----0----------|
--------------------------|--3-----3-----2-----2-----|--0-----0-------------|
--3-----3-----3-----------|--------------------------|----------------------|
--------------------------|--------------------------|----------------------|



----------------------|------------------------|----------------------|
----------------------|------------------------|----------------------|
----------------------|---------------------0--|----------------------|
--3----3----2----2----|--0----0----2--3--4--2--|--3----3----2----2----|
----------------------|------------3--5--6-----|----------------------|
----------------------|------------------------|----------------------|



------------------------|--------------------------|--------------------------|
------------------------|--------------------------|--------------------------|
------------0-----------|-----0-----0-----1-----1--|-----2-----2-----3--0--3--|
--0----0----2--0--2--0--|--------------------------|--------------------------|
---------------8--3--2--|--3-----3-----3-----3-----|--3-----3-----3-----------|
------------------------|--------------------------|--------------------------|



--------------------------|----------------------|--------------------------|
--------------------------|----------------------|--------------------------|
-----2-----2-----0-----0--|-----0-----0----------|-----0-----0-----1-----1--|
--3-----3-----2-----2-----|--0-----0-------------|--------------------------|
--------------------------|----------------------|--3-----3-----3-----3-----|
--------------------------|----------------------|--------------------------|



--------------------------|--------------------------|----------------------|
--------------------------|--------------------------|----------------------|
-----2-----2-----3--0--3--|-----2-----2-----0-----0--|-----0-----0----------|
--------------------------|--3-----3-----2-----2-----|--0-----0-------------|
--3-----3-----3-----------|--------------------------|----------------------|
--------------------------|--------------------------|----------------------|



----------------------|------------------------|----------------------|
----------------------|------------------------|----------------------|
----------------------|---------------------0--|----------------------|
--3----3----2----2----|--0----0----2--3--4--2--|--3----3----2----2----|
----------------------|------------3--5--6-----|----------------------|
----------------------|------------------------|----------------------|



------------------------|--------------------------|--------------------------|
------------------------|--------------------------|--------------------------|
------------0-----------|-----0-----0-----1-----1--|-----2-----2-----3--0--3--|
--0----0----2--0--2--0--|--------------------------|--------------------------|
---------------8--3--2--|--3-----3-----3-----3-----|--3-----3-----3-----------|
------------------------|--------------------------|--------------------------|



--------------------------|----------------------|--------------------------|
--------------------------|----------------------|--------------------------|
-----2-----2-----0-----0--|-----0-----0----------|-----0-----0-----1-----1--|
--3-----3-----2-----2-----|--0-----0-------------|--------------------------|
--------------------------|----------------------|--3-----3-----3-----3-----|
--------------------------|----------------------|--------------------------|



--------------------------|--------------------------|----------------------|
--------------------------|--------------------------|----------------------|
-----2-----2-----3--0--3--|-----2-----2-----0-----0--|-----0-----0----------|
--------------------------|--3-----3-----2-----2-----|--0-----0-------------|
--3-----3-----3-----------|--------------------------|----------------------|
--------------------------|--------------------------|----------------------|



----------------------|------------------------|----------------------|
----------------------|------------------------|----------------------|
----------------------|---------------------0--|----------------------|
--3----3----2----2----|--0----0----2--3--4--2--|--3----3----2----2----|
----------------------|------------3--5--6-----|----------------------|
----------------------|------------------------|----------------------|



------------------------||
------------------------||
------------0-----------||
--0----0----2--0--2--0--||
---------------8--3--2--||
------------------------||



Riff 1:
--17--------15--------|--13--------12--------|--20--------20--------|
----------------------|----------------------|--22--------20--------|
----------------------|----------------------|----------------------|
----------------------|----------------------|----------------------|
----------------------|----------------------|----------------------|
----------------------|----------------------|----------------------|



--22----------------||
--------------------||
--22----------------||
--------------------||
--------------------||
--------------------||