Stop Censorship
 
 

 
 1-9 a b c d e f g h i j k l m n o p q r s t u v w x y z
   Superheist - Bullet Tab    

Artist: Superheist
Song: Bullet
Drop A tuning

Intro: x 2.

|-------------------------------------------------------------|
|-------------------------------------------------------------|
|-----------------5-5-5-5-5-----------------------------------|
|-0-0-0--3-3-3----5-5-5-5-5-----6--6-6-6-6------3--3-3-3-3----|
|-0-0-0--3-3-3----3-3-3-3-3-----6--6-6-6-6------3--3-3-3-3----|
|-0-0-0--3-3-3------------------6--6-6-6-6--0---3--3-3-3-3----|

|-----pm-----|

Intro: x 2.

|------------------------------------------------------------------|
|------------------------------------------------------------------|
|-----------------5-5-5-5-5-//--8--8-8-8-8------------------------|
|-0-0-0--3-3-3----5-5-5-5-5-//--8--8-8-8-8----------3--3-3-3-3----|
|-0-0-0--3-3-3----3-3-3-3-3-//--6--6-6-6-6----------3--3-3-3-3----|
|-0-0-0--3-3-3-----------------------------------0---3--3-3-3-3----|

Verse:

|---------------------------------------------------------------------------------|
|---------------------------------------------------------------------------------|
|-------------------------------------------------------------------------------- |-0-0----7-7----2-2----3-3----3-3----2------0-0----7-7----2-2----3-3----3-3----5--|
|-0-0----7-7----2-2----3-3----3-3----2------0-0----7-7----2-2----3-3----3-3----5--|
|-0-0----7-7----2-2----3-3----3-3----2------0-0----7-7----2-2----3-3----3-3----5--|

Chorus:

|---------------------------------------------------------------------
|---------------------------------------------------------------------
|-10--10--10---9----9-9-//--12--12--12-//--14---10---10--10--10--
|-x---x---x----x----x-x-//---x---x---x-//---x----x----x---x---x--
|-8---8---8----7----7-7-//--10--10--10-//--12----8----8---8---8--
|---------------------------------------------------------------------

Chorus (continued)

|-----------------------------------------------------|
|-----------------------------------------------------|
|-----------------------------------------------------|
|-8----8-8-8--8-8-8-7h8----7----7-7-7--7-7-7----------|
|-8----8-8-8--8-8-8-7h8----7----7-7-7--7-7-7----------|
|-8----8-8-8--8-8-8-7h8----7----7-7-7--7-7-7----------|