Stop Censorship
 
 

 
 1-9 a b c d e f g h i j k l m n o p q r s t u v w x y z
   Superheist - Bullet Tab    

Song: Bullet
Album: The Prize Recruit
Artist: Superheist
Guitarist: DW Norton
Tabbed By Travis Leder (tj_leder@hotmail.com)

KEY:
/ = Slide Up
= Slide Down
~ = Let Ring
PM = Palm Muted

TUNING: 7 string guitar standard (BEADGBE)
6 string guitar tuned down 3 steps (BEADGB)

INTRO A:
E|------------------------------------------------------------|
B|------------------------------------------------------------|
G|------------------------------------------------------------|
D|----------------7--7-7--7-7-7-------------------------------|
A|----------------7--7-7--7-7-7--8--8-8--8-8-8----------------|
E|-2-2-2---5-5-5--5--5-5--5-5-5--8--8-8--8-8-8--5--5-5--5-5-5-|
B|-0-0-0---3-3-3-----------------6--6-6--6-6-6--3--3-3--3-3-3-|

E|-----------------------------------------------------------------|
B|-----------------------------------------------------------------|
G|-----------------------------------------------------------------|
D|----------------7--7-7--7-7-7--10--10-10--10-10-10---------------|
A|----------------7--7-7--7-7-7--10--10-10--10-10-10---------------|
E|-2-2-2---5-5-5--5--5-5--5-5-5--8---8--8---8--8--8--5--5-5--5-5-5-|
B|-0-0-0---3-3-3-------------------------------------3--3-3--3-3-3-|



MAIN RIFF:
E|------------------------------------------------------|
B|------------------------------------------------------|
G|------------------------------------------------------|
D|------------------------------------------------------|
A|------4-4------------------------4-4------------------|
E|-2-2--2-2--4-4--5-5--5-5-4--2-2--2-2--4-4--5-5--5-5-7-|
B|-0-0-------2-2--3-3--3-3-2--0-0-------2-2--3-3--3-3-5-|

CHORUS A:

E|-----------------------------|
B|-----------------------------|
G|-----------------------------|
D|-12--11-/-14-/-16--13-/-14-|
A|--x---x-/--x-/--x---x-/--x-|
E|-10---9-/-12-/-14--11-/-12-|
B|-----------------------------|
The rythm is fairly difficult at first. Listen to the chorus a few times to get it.

CHORUS B:
E|------------------------------------------------------|
B|------------------------------------------------------|
G|------------------------------------------------------|
D|------------------------------------------------------|
A|-5--5-5-5--5-5--5--5-5--4--4-4-4--4-4--4--4-4------|
E|-3--3-3-3--3-3--3--3-3--2--2-2-2--2-2--2--2-2------|
B|------------------------------------------------------|

BRIDGE A:
E|---|
B|---|
G|---|
D|---|
A|-2~|
E|-2~|
B|-0~|

BRIDGE B (Palm muted):
E|------------------------------------------------------------------|
B|------------------------------------------------------------------|
G|------------------------------------------------------------------|
D|------------------------------------------------------------------|
A|---------4-4-4----------------------------4-4-4-------------------|
E|-2-2-2-2-2-2-2-4-4-4-5-5-5-5-4-4--2-2-2-2-2-2-2-4-4-4-5-5-5-5-7-7-|
B|-0-0-0-0-------2-2-2-3-3-3-3-2-2--0-0-0-0-------2-2-2-3-3-3-3-5-5-|



Song Map:
INTRO A x 2
INTRO B x 2
1ST 1/2 MAIN RIFF PM x 1
2ND 1/2 MAIN RIFF NOT PM x 1
MAIN RIFF x 1
MAIN RIFF PM x 2 (Lighten PM toward end)
MAIN RIFF x 2
CHORUS A x 1
CHORUS B x 1
CHORUS A x 1
CHORUS B x 1
MAIN RIFF x 2
MAIN RIFF PM x 2
MAIN RIFF x 2
CHORUS A x 1
CHORUS B x 1
CHORUS A x 1
CHORUS B x 1
BRIDGE A x 1
MAIN RIFF PM x 1
BRIDGE B x 2 (Lighten PM toward end)
MAIN RIFF x 2
CHORUS A x 1
CHORUS B x 1
CHORUS A x 1
CHORUS B x 1
CHORUS A x 1
CHORUS B x 1
CHORUS A x 1
CHORUS B x 1
MAIN RIFF x 2