Stop Censorship
 
 

 
 1-9 a b c d e f g h i j k l m n o p q r s t u v w x y z
   Superheist - Dear Enemy Tab    

Superheist
Dear Enemy
7 string-BEADGBE
or
6 string detune the guitar to BEADGB you may need a chromatic tuner
Intro/verse
E--------------------------------------------------------------------------------
B--------------------------------------------------------------------------------
G--------------------------------------------------------------------------------
D--------------------------------------------------------------------------------
A--------------------------------------------------------------------------------
E----------2-4-4-4-4----------2--4--4--4-4-----------2-4-4-4-4--7-7--7-7-7-------
B-2-2--2--------------5-5--5----------------2-2--2--------------------------5-5--


Intro2/Chorus
E-------------------------------------------------------------------------
B-------------------------------------------------------------------------
G-------------------------------------------------------------------------
D----------6-6-6-6-----------6-6-6-6----------6-6-6-6--9-9--9-9-9---------
A-4-4--4---6-6-6-6---7-7--7--6-6-6-6-4-4--4---6-6-6-6--9-9--9-9-9----7-7--
E-4-4--4---4-4-4-4---7-7--7--4-4-4-4-4-4--4---4-4-4-4--7-7--7-7-7----7-7--
B-2-2--2-------------5-5--5----------2-2--2--------------------------5-5--


Bridge
E-------------------------------------------
B-----------20---------------20-------------
G---15--19-----19------15-19-----19---------
D-------------------------------------------
A-------------------------------------------
E-------------------------------------------
B-------------------------------------------