Stop Censorship
 
 

 
 1-9 a b c d e f g h i j k l m n o p q r s t u v w x y z
   Superheist - Empire Tab    

Band - Superheist
Album - Identical Remote Controlled Reactions
Song - Empire
Tabbed By Fazza

Tuning - 7 String (A E A D G B E)
- 6 String (A E A D G B)

.= Palm Mute

Intro/Chorus (Play x2)
E|-------------|-------------|-----------------|-----------------||
B|-------------|-------------|-----------------|-----------------||
G|-------------|-------------|-----------------|-----------------||
D|-------------|-------------|-5-5-5-5-5-5-5-5-|-5-5-5-5-5-5-5-5-||
A|-2-2-2-2-2-2-|-2-2-2-5-5-5-|-5-5-5-5-5-5-5-5-|-5-5-5-5-5-5-5-5-||
E|-2-2-2-2-2-2-|-2-2-2-5-5-5-|-3-3-3-3-3-3-3-3-|-3-3-3-3-3-3-3-3-||
A|-2-2-2-2-2-2-|-2-2-2-5-5-5-|-----------------|-----------------||
. . .

E|---------------|----------|-----------------|-----------------||
B|---------------|----------|-----------------|-----------------||
G|---------------|----------|-----------------|-----------------||
D|---------------|----------|-5-5-5-5-5-5-5-5-|-5-5-5-5-5-5-5-5-||
A|-2-2-4-5-4-2-4-|--4-5-5-5-|-5-5-5-5-5-5-5-5-|-5-5-5-5-5-5-5-5-||
E|-2-------------|----------|-3-3-3-3-3-3-3-3-|-3-3-3-3-3-3-3-3-||
A|-2-------------|----------|-----------------|-----------------||

Verse
E|---------------|------------|--------------|---------||
B|---------------|------------|--------------|---------||
G|---------------|------------|--------------|---------||
D|---5-4-5-5-7---|-5--5-4-5-5-|--5-4-5-5-7-5-|---5-5-5-||
A|-5-------------|------------|--------------|---5-5-5-||
E|---------------|------------|--------------|---3-3-3-||
A|---------------|------------|--------------|---------||

Bridge (Play 3 times) End 3rd time with this
E|--------------|----------------||---------||
B|--------------|----------------||---------||
G|--------------|----------------||---------||
D|-5-5-5--5-5-5-|-5--5-5-5-5-5---||-5-5-5---||
A|-5-5-5--5-5-5-|-5--5-5-5-5-5---||-5-5-5-2-||
E|-3-3-3--3-3-3-|-3--3-3-3-3-3---||-3-3-3-2-||
A|--------------|----------------||-------2-||
. . . . . .
Solo
E|-------------------------------------|-----------------------------------||
B|-------------------------------------|-----------------------------------||
G|-------------------------------------|-----------------------------------||
D|-------------------------------------|-----------------------------------||
A|-------------------------------------|-----------------------------------||
E|-4-5-4-4-4-5-7-7-7-7-5-5-5-4-5-5-5-2-|-4-5-4-4-4-5-7-7-7-7-5-5-5-4-5-5-5-||
A|-------------------------------------|-----------------------------------||

E|---------------|-----------------|-------||
B|---------------|-----------------|-------||
G|---------------|-----------------|-------||
D|-5-5-5-5-5-5-5-|-5-5-5-5-5-5-5-5-|-5-5-5-||
A|-5-5-5-5-5-5-5-|-5-5-5-5-5-5-5-5-|-5-5-5-||
E|-3-3-3-3-3-3-3-|-3-3-3-3-3-3-3-3-|-3-3-3-||
A|---------------|-----------------|-------||
. . . . . . . . . . .

Outro
E|--------------|----------------||
B|--------------|----------------||
G|--------------|----------------||
D|-5-5-5--5-5-5-|-5--5-5-5-5-5---||
A|-5-5-5--5-5-5-|-5--5-5-5-5-5---||
E|-3-3-3--3-3-3-|-3--3-3-3-3-3---||
A|--------------|----------------||
. . .
E|--------------|----------------||
B|--------------|----------------||
G|--------------|----------------||
D|-5-5-5--5-5-5-|-5-5-5-5-5-5-5--||
A|-5-5-5--5-5-5-|-5-5-5-5-5-5-5--||
E|-3-3-3--3-3-3-|-3-3-3-3-3-3-3--||
A|--------------|----------------||
. . . . . . .
E|--------------|-----------------||---------||
B|--------------|-----------------||---------||
G|--------------|-----------------||---------||
D|-5-5-5--5-5-5-|-5-5-5-5-5-5-5---||-5-5-5---||
A|-5-5-5--5-5-5-|-5-5-5-5-5-5-5---||-5-5-5-2-||
E|-3-3-3--3-3-3-|-3-3-3-3-3-3-3---||-3-3-3-2-||
A|--------------|-----------------||-------2-||
. . .
Intro
Verse
Chorus
Verse
Chorus
Bridge
Solo
Chorus
Outro