Stop Censorship
 
 

 
 1-9 a b c d e f g h i j k l m n o p q r s t u v w x y z
   Superjoint Ritual - All Our Lives Will Get Tried Tab    

Artist-Superjoint Ritual
Album-Use once and destroy
Tabbed by-DoubleBass Jim


|-----------------------|
|-----------------------|
|-----------------------|
|-----------------------|
|--7-7-(7)--5-7--5-(7)--|
|--5-5-(5)--3-5--3-(5)--|


|------------------------------------|
|------------------------------------|
|------------------------------------|
|------------------------------------|
|------------------------------------|
|-0-0-0-0-0-0-0-0-0-0-0-0-0-0-0-0-0--|

(just slide your fingers down the
frets doing a bunch of harmonics)
|-------------------|
|-------------------|
|-------------------|
|-------------------|
|/**/**/**/**/--|
|-------------------|


|-----------------------|
|-----------------------|
|-----------------------|
|-----------------------|
|-9--99--99--99--99999--|
|-7--77--77--77--77777--|


|---------------------------------------------|
|---------------------------------------------|
|---------------------------------------------|
|---------------------------------------------|
|-2--2-2-2-2-2-2-2-2-2-2-2-2-2-2--5-5-5-5-5-5-|
|-0--0-0-0-0-0-0-0-0-0-0-0-0-0-0--3-3-3-3-3-3-|

|------------------------------------------|
|------------------------------------------|
|------------------------------------------|
|------------------------------------------|
|------------------------------------------|
|-8--6--3--10--8--5--8--6--3--10--7h8p7--5-|