Stop Censorship
 
 

 
 1-9 a b c d e f g h i j k l m n o p q r s t u v w x y z
   Superjoint Ritual - Superjoint Ritual Tab    

Tuning-C# F# B E G# C#
Tabbed by-Doublebass jim
Artist-Superjoint Ritual
Album- Use Once And Destroy


(00:00-00:11)
|-----------|
|-----------|
|-----------|
|-7-6-7-777-|
|-5-4-5-555-|
|-----------|

(00:12-00:33)
|--------|
|--------|
|--------|
|-3/6----|
|-3/6----|
|-1/4----|

(00:34-01:04)
|-----------------------------------|
|-----------------------------------|
|-----------------------------------|
|-----------------------------------|
|-7--10--7--0--6--9--6--0--5--8--5--|
|-----------------------------------|

Interludes:
|-------------||-------------|
|-------------||-------------|
|-------------||-------------|
|-------------||-------------|
|-10--11--12--||-------------|
|-8---9---10--||-/12-/13-/14-|

(01:11-01:56)
|-----------------------------|
|-----------------------------|
|-----------------------------|
|-----------------------------|
|-----------------------------|
|-/5--8--5--4--7--4--3--6--3--|

(04:31-06:19)
|-----------------|
|-----------------|
|-----------------|
|-----------------|
|-----------------|
|-3~--2~--5~--0~--|

|-------------------------||------------------------|
|-------------------------||------------------------|
|-------------------------||------------------------|
|-222--222--222-222-22222-||-2-2-2-2-2-2-2-2-2------|
|-222--222--222-222-22222-||-2-2-2-2-2-2-2-2-2------|
|-000--000--000-000-00000-||-0-0-0-0-0-0-0-0-0------|
... ... ... ... ..... . . . . . . . . .

(05:24)
|---------------|
|-12~--12~--12~-|
|-15~--15~--15~-|
|---------------|
|---------------|
|---------------|


=***ing Metal,Bitch!!