Stop Censorship
 
 

 
 1-9 a b c d e f g h i j k l m n o p q r s t u v w x y z
   Superjoint Ritual - The Alchoholik Tab    



Superjoint Ritual - Use Once And Destroy - 04 - The Alchoholik

Tabbed by : the Spoojmaster

Tuning : Db-Ab-Db-Gb-Bb-Eb




intro:0:00

guitar 1

(Harsh feedback) rake pick up string while bending 0:06
Eb]------------------------------------------------------------------------|
Bb]-----*------------------------------------------------------------------|
Gb]----*-*"----------------------------------------------------------------|
Db]----"---------2s-hold---------------------------------------------------|
Ab]------*&)*----/=====----------------------------------/2s--------------|
Db]------0------3b---(5)-------------------------------1b(3)-1-------------|


0:01 guitar 2 comes in with riff A 0:05 (drums enter)
[riff A begins
Eb]------------------------------------------------------------------------|
Bb]------------------------------------------------------------------------|
Gb]------------------------------------------------------------------------|
Db]--3-5-0-3-5-3-0--0-0-0--3-5-3-0--0-0-0--3-5-3-0--0-0-0---3-5-3-0--0-0-0-|
Ab]--3-5-0-3-5-3-0--0-0-0--3-5-3-0--0-0-0--3-5-3-0--0-0-0---3-5-3-0--0-0-0-|
Db]--3-5-0-3-5-3-0--0-0-0--3-5-3-0--0-0-0--3-5-3-0--0-0-0---3-5-3-0--0-0-0-|

0:08 guitars 1&2 play riff A once together

0:15 guitar 1 dicks off and guitar 2 plays this version of riff A
Eb]-------------------------------------------------------------------------|
Bb]-------------------------------------------------------------------------|
Gb]-------------------------------------------------------------------------|
Db]-3h5p3-0--0-0-0-0--3h5p3-0--0-0-0-0--3h5p3-0--0-0-0-0--3h5p3-0--0-0-0-0--|
Ab]-3h5p3-0--0-0-0-0--3h5p3-0--0-0-0-0--3h5p3-0--0-0-0-0--3h5p3-0--0-0-0-0--|
Db]-3h5p3-0--0-0-0-0--3h5p3-0--0-0-0-0--3h5p3-0--0-0-0-0--3h5p3-0--0-0-0-0--|
pm....... ....... ....... .......

0:22 guitars 1&2 play riff A once together again

0:30 guitar 1 stops and guitar 2 plays the second version of riff A again

0:36 guitars 1&2 play riff A together yet again

0:43 guitar 1&2 play the 2nd version of riff A minus the palm mutes

0:50 riff B

riff B

guitar 1

Eb]----------------------------------------------------------------|
Bb]----------------------------------------------------------------|
Gb]----------------------------------------------------------------|
Db]--6--6--6--6--6-6-----5--5--5-------------------3h5p3-----------|
Ab]--6--6--6--6--6-6-----5--5--5-------------3--5---------5--3-----|
Db]--6--6--6--6--6-6-----5--5--5-------5--7------------------------|

guitar 2

Eb]----------------------------------------------------------------|
Bb]----------------------------------------------------------------|
Gb]----------------------------------------------------------------|
Db]--6--6--6--6--6-6-----5--5--5-----------------------------------|
Ab]--6--6--6--6--6-6-----5--5--5-----------------------------------|
Db]--6--6--6--6--6-6-----5--5--5-----------------------------------|

0:57 guitars 1&2 go back to riff A once

1:03 guitars 1&2 play riff b again

1:10 guitars 1&2 play riff A once

1:17 riff b again

1:24 guitars 1&2 play the ending lick of riff B 4 times

1:30 riff C

guitars 1&2 riff C

Eb]--------------------------------------------------------------------|
Bb]--------------------------------------------------------------------|
Gb]--------------------------------------------------------------------|
Db]-----------6-6-------------6-6---------------6-6---------------6-6--|
Ab]-----------6-6-------------6-6---------------6-6---------------6-6--|
Db]--000000---6-6----000000---6-6------000000---6-6------000000---6-6--|
pm....... ...... ...... ......

1:36 guitars 1&2 play the ending lick of riff B 2 times


1:40 guitars 1&2 riff D 4 times


riff D

Eb]----------------------------------------------------------------|
Bb]----------------------------------------------------------------|
Gb]----------------------------------------------------------------|
Db]-109-9-9-9-9-98-8-8-8-8----3--4--5--3--4--5-------------------|
Ab]-109-9-9-9-9-98-8-8-8-8----3--4--5--3--4--5-------------------|
Db]-109-9-9-9-9-98-8-8-8-8----3--4--5--3--4--5-------------------|


1:53 guitars one and two play the ending lick of riff B twice

1:56 guitars one and two play riff C

2:03 guitars one and two play the ending lick of riff B twice

2:06 guitars one and two play riff D 4 times

2:19 outro riff play 14 ur 15 times

Eb]----------------------------------------------------------------|
Bb]----------------------------------------------------------------|
Gb]----------------------------------------------------------------|
Db]--3-4-5--------------------last time play---3-4-10--------------|
Ab]--3-4-5-------------------------------------3-4-10--------------|
Db]--3-4-5-------------------------------------3-4-10--------------|